Tabs by Artist
0-9 A B C D E F G H I J K L M N O P Q R S T U V W X Y Z

"WILD CHERRIES"

As recorded by A Rag By Ted Snyder

Tablature (Tab) for Guitar


Gtr I (E A D G B E) - 'Guitar'


  Q=175
 4/4
  Gtr I
  E E E E E E E E   E E E E Q  +Q     E E E E E E E E   E E E E Q  +Q
|-----------------|-----------------|-----------------|------------------|
|-4---3-4---3-4---|-3-4---3-4--(4)--|-4---3-4---3-4---|-3-4---3-4--(4)---|
|---5-----5-----5-|-----5-----------|---5-----5-----5-|-----5------------|
|-----------------|-----------------|-----------------|------------------|
|-6-------6-------|-6-----------6---|-6-------6-------|-6-----------6----|
|-----------------|-----------------|-----------------|------------------|
  H       H         H       Q   Q     H       H         H       Q   Q


  E E E E E E E E   E E E E Q  Q    E E +E  E Q  Q    H    H
|-----------------|------------2--|-3-3-(3)-3-3--3--|-3----3----|
|-4---3-4---3-4---|-3-4---3-4--3--|-0-0-(0)-0-1--2--|-3----0----|
|---5-----5-----5-|-----5------2--|-0---------------|------0----|
|-----------------|---------------|-----------------|-----------|
|-6-------6-------|-6-------6-----|-----------0--1--|-2---------|
|-----------------|------------2--|---------3-------|------3----|
  H       H         H       Q  Q    Q   +E  E Q  Q


    $
    E E E E +E  E Q    E E E E +E  E Q    E E E E +E  E Q    E E E E E E Q
||--0---0------------|------------------|------------------|------------------|
||o---4---3-(3)-2-3--|-1-0-1-0-(0)---0--|------------------|------------------|
||--0-----1----------|-------------3----|-2-1-2-0-(0)---0--|---0-2-0----------|
||------2---------2--|-2-----2-------2--|-------------4----|-3-------3-2-0----|
||o-3--------2-------|-0---3---------2--|-----0-4-------0--|-5-------------3--|
||-------------------|----------3-------|-1--------0-------|------------------|
    Q   Q    Q    Q    Q   Q    Q    Q    Q   E E  Q    Q    H       Q   E E


  Q  Q  Q   Q     E E E E Q  +Q     Q  Q  Q   Q     E E E E Q  +Q
|---------------|-----------------|---------------|-----------------|
|---------------|-------0---------|---------------|-------0---------|
|----2--2--(2)--|---1-2---2--(2)--|----2--2--(2)--|---1-2---2--(2)--|
|----3----------|-0---3-------3---|-----------1---|-2---------------|
|-2---------4---|-----------------|-3-----3-------|---------3-------|
|-------3-------|---------3-------|----3----------|-----3-------3---|
                  Q   Q   Q   Q                     Q   Q   Q   Q


  E E E E +E  E Q    E E E E +E  E Q    E E E E +E  E Q    E E E E E E Q
|-0---0------------|------------------|------------------|-----------------|
|---4---3-(3)-2-3--|-1-0-1-0-(0)---0--|------------------|-----------------|
|-0-----1----------|-------------3----|-2-1-2-0-(0)---0--|---0-2-0---------|
|-----2---------2--|-2-----2-------2--|-------------4----|-3-------3-2-0---|
|-3--------2-------|-0---3---------2--|-----0-4-------0--|-5-------------3-|
|------------------|----------3-------|-1--------0-------|-----------------|
  Q   Q    Q    Q    Q   Q    Q    Q    Q   E E  Q    Q    H       Q   E E


                                                     1.
                                             To Coda
  Q  Q  Q   Q     Q  E E E E Q    Q   E  E +E  E Q    Q  Q  Q  Q
|---------------|---------------|-------------------|----3--3--3---||
|---------------|--------0------|-1-----------------|----0--1--3--o||
|----2--2--(2)--|----0-2---2-0--|-0---0--2-(2)-0----|--------------||
|----3----------|-0--3-------3--|----------------2--|--------------||
|-2---------4---|---------------|-3--(3)------------|-3-----0--2--o||
|-------3-------|--------3------|-------------------|----3---------||
                  Q  Q   Q   Q    Q  +Q     H


  2.
  H    H        Q  H    Q    Q  E E +E  E Q    Q  E E +E  E Q
|-----------||-------------|----0-1-(1)-0----|-0--1-3-(3)-1-0--|
|------1----||o------------|-3------------3--|-----------------|
|------0----||-------------|-----------------|----0---------0--|
|-----------||-------------|-0--3---------0--|-----------------|
|-3----3----||o-0--2----4--|---------0-------|-4-------0-------|
|-----------||-------------|-----------------|-----------------|
                             Q  Q    Q    Q    Q  Q    Q    Q


  Q  E E +E  E Q    Q  H    Q    Q  E E +E  E Q    Q  E E +E  E Q
|-1--3-5-(5)-3-1--|------------|------0-(0)------|----0-1-(1)-0----|
|-----------------|------------|-1--3-------3-1--|-3------------3--|
|-----------------|------------|-----------------|-----------------|
|-0--3---------3--|------------|----2---------2--|----3---------3--|
|---------0-------|----0----2--|-3---------------|-2---------------|
|-----------------|-3----------|---------3-------|---------3-------|
  Q  Q    Q    Q                 Q  Q    Q    Q    Q  Q    Q    Q


  Q  E E +E  E Q    Q  H    Q    Q  E E +E  E Q    Q  E E +E  E Q
|-0--1-3-(3)-1-0--|------------|----0-1-(1)-0----|-0--1-3-(3)-1-0--|
|-----------------|------------|-3------------3--|-----------------|
|-----------------|------------|-----------------|----0---------0--|
|----2---------2--|------------|-0--3---------0--|-----------------|
|-3---------------|-0--2----4--|---------0-------|-4-------0-------|
|---------3-------|------------|-----------------|-----------------|
  Q  Q    Q    Q                 Q  Q    Q    Q    Q  Q    Q    Q


  Q  E E +E  E Q    E E E E +E  E Q    E E E E +E  E Q    Q  H    Q
|-1--3-5-(5)-3-1--|------------------|------------------|-1--0-------|
|-----------------|-------3-(3)---3--|-------1-(1)---1--|-0--0----3--|
|-----------------|-2-1-2-------2----|-0---0-------2----|----0-------|
|-0--3---------3--|-0----------------|---4--------------|---------3--|
|---------0-------|----------0-------|-----2----0----0--|------------|
|-----------------|-----1---------1--|-3----------------|-3-------3--|
  Q  Q    Q    Q    Q   Q    Q    Q    Q   Q    Q    Q


  1.                2.
                  D.S. al Coda
                              &
  Q   Q   Q  Q      H    H      Q  Q  Q  +Q     +W
|----------------||------3----|----3s=8--(8)--|-(8)----*|
|-1--(1)--------o||-1---------|-1--0--5--(5)--|-(5)----*|
|-0--------------||-0---------|-0-----0--(0)--|-(0)----*|
|----------------||------3----|---------------|--------*|
|-3---3---2--1--o||-3---------|-3-------------|--------*|
|----------------||------3----|----3s=8--(8)--|-(8)----*|



Duration Legend
---------------
W - whole; H - half; Q - quarter; E - 8th; S - 16th; T - 32nd; X - 64th; a - acciaccatura
+ - note tied to previous; . - note dotted; .. - note double dotted
Uncapitalized letters represent notes that are staccato (1/2 duration)
Irregular groupings are notated above the duration line
Duration letters will always appear directly above the note/fret number it represents the
duration for.  Duration letters with no fret number below them represent rests.  Multi-
bar rests are notated in the form Wxn, where n is the number of bars to rest for.  Low
melody durations appear below the staff

Tablature Legend
----------------
 h   - hammer-on
 p   - pull-off
 b   - bend
 pb  - pre-bend
 r   - bend release (if no number after the r, then release immediately)
 /\  - slide into or out of (from/to "nowhere")
 s   - legato slide
 S   - shift slide
<n> - natural harmonic
[n]  - artificial harmonic
n(n) - tapped harmonic
 ~   - vibrato
 tr  - trill
 T   - tap
 TP  - trem. picking
 PM  - palm muting
\n/  - tremolo bar dip; n = amount to dip
 \n  - tremolo bar down
 n/  - tremolo bar up
/n\  - tremolo bar inverted dip
 =   - hold bend; also acts as connecting device for hammers/pulls
 <> - volume swell (louder/softer)
 x   - on rhythm slash represents muted slash
 o   - on rhythm slash represents single note slash

Misc Legend
-----------
 |  - bar
||  - double bar
||o - repeat start
o|| - repeat end
*|  - double bar (ending)
 :