Tabs by Artist
0-9 A B C D E F G H I J K L M N O P Q R S T U V W X Y Z

SOMEBODY KILL ME (Live)

As recorded by Adam Sandler

(From the 1996 Album THE WEDDING SINGER)

Tablature (Tab) for Guitar
Transcribed by Nigel Semegen
Words and Music by Adam Sandler


E

0 2 2 1 0 0
B7

x 2 1 2 0 2
Asus2

x 0 2 2 0 0
E5

0 2 x x x x
B5

x 2 4 x x x
A5

x 0 2 x x x
E(type 2)

0 2 2 1 x x



Gtr I (E A D G B E) - 'Untitled'


  E           E(type 2)
 4/4
  Gtr I
   W          E E Q  H      W          W
|-^0--------|-------------|----------|------|
|-^0--------|-------------|----------|------|
|-^1--------|-1-----------|----------|------|
|-^2--------|-2-----------|----------|------|
|-^2--------|-2-----------|----------|------|
|-^0--------|-0-----------|----------|------|


  E5                B5                A5
  PM------------------------------------------------------------------|
  E E E E E E E E   E E E E E E E E   E E E E E E E E   E E E E E E E E
|-----------------|-----------------|-----------------|------------------|
|-----------------|-----------------|-----------------|------------------|
|-----------------|-----------------|-----------------|------------------|
|-----------------|-4-4-4-4-4-4-4-4-|-2-2-2-2-2-2-2-2-|-2-2-2-2-2-2-2-2--|
|-2-2-2-2-2-2-2-2-|-2-2-2-2-2-2-2-2-|-0-0-0-0-0-0-0-0-|-0-0-0-0-0-0-0-0--|
|-0-0-0-0-0-0-0-0-|-----------------|-----------------|------------------|


  E5                B5                A5
  PM------------------------------------------------------------------|
  E E E E E E E E   E E E E E E E E   E E E E E E E E   E E E E E E E E
|-----------------|-----------------|-----------------|------------------|
|-----------------|-----------------|-----------------|------------------|
|-----------------|-----------------|-----------------|------------------|
|-----------------|-4-4-4-4-4-4-4-4-|-2-2-2-2-2-2-2-2-|-2-2-2-2-2-2-2-2--|
|-2-2-2-2-2-2-2-2-|-2-2-2-2-2-2-2-2-|-0-0-0-0-0-0-0-0-|-0-0-0-0-0-0-0-0--|
|-0-0-0-0-0-0-0-0-|-----------------|-----------------|------------------|


  E5                B5                A5
  PM------------------------------------------------------------------|
  E E E E E E E E   E E E E E E E E   E E E E E E E E   E E E E E E E E
|-----------------|-----------------|-----------------|------------------|
|-----------------|-----------------|-----------------|------------------|
|-----------------|-----------------|-----------------|------------------|
|-----------------|-4-4-4-4-4-4-4-4-|-2-2-2-2-2-2-2-2-|-2-2-2-2-2-2-2-2--|
|-2-2-2-2-2-2-2-2-|-2-2-2-2-2-2-2-2-|-0-0-0-0-0-0-0-0-|-0-0-0-0-0-0-0-0--|
|-0-0-0-0-0-0-0-0-|-----------------|-----------------|------------------|


  E5                B5                A5
  PM------------------------------------------------------------------|
  E E E E E E E E   E E E E E E E E   E E E E E E E E   E E E E E E E E
|-----------------|-----------------|-----------------|------------------|
|-----------------|-----------------|-----------------|------------------|
|-----------------|-----------------|-----------------|------------------|
|-----------------|-4-4-4-4-4-4-4-4-|-2-2-2-2-2-2-2-2-|-2-2-2-2-2-2-2-2--|
|-2-2-2-2-2-2-2-2-|-2-2-2-2-2-2-2-2-|-0-0-0-0-0-0-0-0-|-0-0-0-0-0-0-0-0--|
|-0-0-0-0-0-0-0-0-|-----------------|-----------------|------------------|


  E     B7      Asus2           E     B7      Asus2
  Q  Q  Q  Q    Q  E Q  E E E   Q  Q  Q  Q    Q  E Q  E E E
|-0--0--2--2--|-0--0-0--0-0-0-|-0--0--2--2--|-0--0-0--0-0-0--|
|-0--0--0--0--|-0--0-0--0-0-0-|-0--0--0--0--|-0--0-0--0-0-0--|
|-1--1--2--2--|-2--2-2--2-2-2-|-1--1--2--2--|-2--2-2--2-2-2--|
|-2--2--1--1--|-2--2-2--2-2-2-|-2--2--1--1--|-2--2-2--2-2-2--|
|-2--2--2--2--|-0--0-0--0-0-0-|-2--2--2--2--|-0--0-0--0-0-0--|
|-0--0--------|---------------|-0--0--------|----------------|


  E     B7      Asus2           E     B7      Asus2
  Q  Q  Q  Q    Q  E Q  E E E   Q  Q  Q  Q    Q  E Q  E E E
|-0--0--2--2--|-0--0-0--0-0-0-|-0--0--2--2--|-0--0-0--0-0-0--|
|-0--0--0--0--|-0--0-0--0-0-0-|-0--0--0--0--|-0--0-0--0-0-0--|
|-1--1--2--2--|-2--2-2--2-2-2-|-1--1--2--2--|-2--2-2--2-2-2--|
|-2--2--1--1--|-2--2-2--2-2-2-|-2--2--1--1--|-2--2-2--2-2-2--|
|-2--2--2--2--|-0--0-0--0-0-0-|-2--2--2--2--|-0--0-0--0-0-0--|
|-0--0--------|---------------|-0--0--------|----------------|


  E5                B5                A5
  PM------------------------------------------------------------------|
  E E E E E E E E   E E E E E E E E   E E E E E E E E   E E E E E E E E
|-----------------|-----------------|-----------------|------------------|
|-----------------|-----------------|-----------------|------------------|
|-----------------|-----------------|-----------------|------------------|
|-----------------|-4-4-4-4-4-4-4-4-|-2-2-2-2-2-2-2-2-|-2-2-2-2-2-2-2-2--|
|-2-2-2-2-2-2-2-2-|-2-2-2-2-2-2-2-2-|-0-0-0-0-0-0-0-0-|-0-0-0-0-0-0-0-0--|
|-0-0-0-0-0-0-0-0-|-----------------|-----------------|------------------|


  E5                B5                A5
  PM------------------------------------------------------------------|
  E E E E E E E E   E E E E E E E E   E E E E E E E E   E E E E E E E E
|-----------------|-----------------|-----------------|------------------|
|-----------------|-----------------|-----------------|------------------|
|-----------------|-----------------|-----------------|------------------|
|-----------------|-4-4-4-4-4-4-4-4-|-2-2-2-2-2-2-2-2-|-2-2-2-2-2-2-2-2--|
|-2-2-2-2-2-2-2-2-|-2-2-2-2-2-2-2-2-|-0-0-0-0-0-0-0-0-|-0-0-0-0-0-0-0-0--|
|-0-0-0-0-0-0-0-0-|-----------------|-----------------|------------------|


  E5                B5                A5
  PM------------------------------------------------------------------|
  E E E E E E E E   E E E E E E E E   E E E E E E E E   E E E E E E E E
|-----------------|-----------------|-----------------|------------------|
|-----------------|-----------------|-----------------|------------------|
|-----------------|-----------------|-----------------|------------------|
|-----------------|-4-4-4-4-4-4-4-4-|-2-2-2-2-2-2-2-2-|-2-2-2-2-2-2-2-2--|
|-2-2-2-2-2-2-2-2-|-2-2-2-2-2-2-2-2-|-0-0-0-0-0-0-0-0-|-0-0-0-0-0-0-0-0--|
|-0-0-0-0-0-0-0-0-|-----------------|-----------------|------------------|


  E     B7      Asus2           E     B7      Asus2
  Q  Q  Q  Q    Q  E Q  E E E   Q  Q  Q  Q    Q  E Q  E E E
|-0--0--2--2--|-0--0-0--0-0-0-|-0--0--2--2--|-0--0-0--0-0-0--|
|-0--0--0--0--|-0--0-0--0-0-0-|-0--0--0--0--|-0--0-0--0-0-0--|
|-1--1--2--2--|-2--2-2--2-2-2-|-1--1--2--2--|-2--2-2--2-2-2--|
|-2--2--1--1--|-2--2-2--2-2-2-|-2--2--1--1--|-2--2-2--2-2-2--|
|-2--2--2--2--|-0--0-0--0-0-0-|-2--2--2--2--|-0--0-0--0-0-0--|
|-0--0--------|---------------|-0--0--------|----------------|


  E      Asus2    E      Asus2    E       B7        Asus2
  Q  E E Q  E E   Q  E E Q  E E   E E E E E E E E   E E E E E E E E
|-0--0-0-0--0-0-|-0--0-0-0--0-0-|-0-0-0-0-2-2-2-2-|-0-0-0-0-0-0-0-0--|
|-0--0-0-0--0-0-|-0--0-0-0--0-0-|-0-0-0-0-0-0-0-0-|-0-0-0-0-0-0-0-0--|
|-1--1-1-2--2-2-|-1--1-1-2--2-2-|-1-1-1-1-2-2-2-2-|-2-2-2-2-2-2-2-2--|
|-2--2-2-2--2-2-|-2--2-2-2--2-2-|-2-2-2-2-1-1-1-1-|-2-2-2-2-2-2-2-2--|
|-2--2-2-0--0-0-|-2--2-2-0--0-0-|-2-2-2-2-2-2-2-2-|-0-0-0-0-0-0-0-0--|
|-0--0-0--------|-0--0-0--------|-0-0-0-0---------|------------------|


                                                        H.=H
  E       B7        Asus2             E       B7        Asus2
  E E E E E E E E   E E E E E E E E   E E E E E E E E   E E E E E E E E
|-0-0-0-0-2-2-2-2-|-0-0-0-0-0-0-0-0-|-0-0-0-0-2-2-2-2-|-0-0-0-0-0-0-0-0--|
|-0-0-0-0-0-0-0-0-|-0-0-0-0-0-0-0-0-|-0-0-0-0-0-0-0-0-|-0-0-0-0-0-0-0-0--|
|-1-1-1-1-2-2-2-2-|-2-2-2-2-2-2-2-2-|-1-1-1-1-2-2-2-2-|-2-2-2-2-2-2-2-2--|
|-2-2-2-2-1-1-1-1-|-2-2-2-2-2-2-2-2-|-2-2-2-2-1-1-1-1-|-2-2-2-2-2-2-2-2--|
|-2-2-2-2-2-2-2-2-|-0-0-0-0-0-0-0-0-|-2-2-2-2-2-2-2-2-|-0-0-0-0-0-0-0-0--|
|-0-0-0-0---------|-----------------|-0-0-0-0---------|------------------|


  E
  W          W
|-0--------|------*|
|-0--------|------*|
|-1--------|------*|
|-2--------|------*|
|-2--------|------*|
|-0--------|------*|



Duration Legend
---------------
W - whole; H - half; Q - quarter; E - 8th; S - 16th; T - 32nd; X - 64th; a - acciaccatura
+ - note tied to previous; . - note dotted; .. - note double dotted
Uncapitalized letters represent notes that are staccato (1/2 duration)
Irregular groupings are notated above the duration line
Duration letters will always appear directly above the note/fret number it represents the
duration for.  Duration letters with no fret number below them represent rests.  Multi-
bar rests are notated in the form Wxn, where n is the number of bars to rest for.  Low
melody durations appear below the staff

Tablature Legend
----------------
 h   - hammer-on
 p   - pull-off
 b   - bend
 pb  - pre-bend
 r   - bend release (if no number after the r, then release immediately)
 /\  - slide into or out of (from/to "nowhere")
 s   - legato slide
 S   - shift slide
<n> - natural harmonic
[n]  - artificial harmonic
n(n) - tapped harmonic
 ~   - vibrato
 tr  - trill
 T   - tap
 TP  - trem. picking
 PM  - palm muting
\n/  - tremolo bar dip; n = amount to dip
 \n  - tremolo bar down
 n/  - tremolo bar up
/n\  - tremolo bar inverted dip
 =   - hold bend; also acts as connecting device for hammers/pulls
 <> - volume swell (louder/softer)
 x   - on rhythm slash represents muted slash
 o   - on rhythm slash represents single note slash

Misc Legend
-----------
 |  - bar
||  - double bar
||o - repeat start
o|| - repeat end
*|  - double bar (ending)
 :  - bar (freetime)
 $  - Segno
 &  - Coda
Tempo markers - <E/E./Q/Q./H/H.> = BPM(8/16=s8/s16), where s8 = swing 8ths, s16 = swing 16ths


*** GuitarCats.com ***