Tabs by Artist
0-9 A B C D E F G H I J K L M N O P Q R S T U V W X Y Z

CURURU

As recorded by Air Du Br Sil

Tablature (Tab) for Guitar


Gtr I (E A D G B D) - 'Guitar'


  Q=76
 2/4
  Gtr I
  S E S S E S   S E S S E S   S E S S E S
|-3-0---------|-2-0---------|---0-----2-0-|
|-----1-0-----|-----1---1-0-|-----1-0-----|
|---------2-0-|-------0-----|-2-----------|
|-0-----------|-------2-----|-3-----------|
|-------------|-3-----------|-------------|
|-------3-----|-------------|-------3-----|
  Q     Q       Q     Q       Q     Q


       Fine
  H        S E S E E   H           S E S E E
|------||------------|-----------|-----------|
|-1----||o-----------|-1---------|-----------|
|------||--0-0-2-0---|-----------|-0-0-2-0---|
|-2----||----------2-|-2-----2-2-|---------2-|
|-3----||o-3-----3---|-----------|-3-----3---|
|------||------------|---0-3-----|-----------|
           Q     Q     S E S E E   Q     Q


  H           S E S E E   S E S E E   S E S E E
|-----------|-2-2-2-0-2-|-3-0-------|-----------|
|-1---------|-----------|-----0-----|-----------|
|-----------|-----------|-------0-0-|-2-2-0-0---|
|-2---------|-----------|-0---------|---------3-|
|-------3-3-|-4-----0---|-----------|-----------|
|---3-3-----|-----------|-------3---|-1-----3---|
  S E S E E   Q     Q     Q     Q     Q     Q


  H          S E S E E   H           S E S E E
|----------|-----------|-----------|-----------|
|----------|-----------|-1---------|-----------|
|----------|-0-0-2-0---|-----------|-0-0-2-0---|
|-2--------|---------2-|-2-----2-2-|---------2-|
|-3--------|-3-----3---|-----------|-3-----3---|
|---3-3-3--|-----------|---3-3-----|-----------|
  S E S Q    Q     Q     S E S E E   Q     Q


  H           S E S E E   S E S E E   S E S S E S
|-----------|-2-2-2-0-2-|-3-0-------|---------2-0-|
|-1---------|-----------|-----0-----|-------0-----|
|-----------|-----------|-------0-0-|-2-2-2-------|
|-2---------|-----------|-0---------|-------------|
|-------3-3-|-4-----0---|-----------|-------------|
|---3-3-----|-----------|-------3---|-1-----3-----|
  S E S E E   Q     Q     Q     Q     Q     Q


  H          S E S S E S   S E S S E S
|----------|-3-0---------|-2-0---------|
|-1--------|-----1-0-----|-----1---1-0-|
|----------|---------2-0-|-------0-----|
|-2--------|-0-----------|-------2-----|
|----------|-------------|-3-----------|
|---3-1-0--|-------3-----|-------------|
  S E S Q    Q     Q       Q     Q


D.C. al Fine
  S E S S E S   H
|---0-----2-0-|-------------||
|-----1-0-----|-1----------o||
|-2-----------|-------------||
|-3-----------|-2-----------||
|-------------|-------3----o||
|-------3-----|---0-3-------||
  Q     Q       S E S Q



Duration Legend
---------------
W - whole; H - half; Q - quarter; E - 8th; S - 16th; T - 32nd; X - 64th; a - acciaccatura
+ - note tied to previous; . - note dotted; .. - note double dotted
Uncapitalized letters represent notes that are staccato (1/2 duration)
Irregular groupings are notated above the duration line
Duration letters will always appear directly above the note/fret number it represents the
duration for.  Duration letters with no fret number below them represent rests.  Multi-
bar rests are notated in the form Wxn, where n is the number of bars to rest for.  Low
melody durations appear below the staff

Tablature Legend
----------------
 h   - hammer-on
 p   - pull-off
 b   - bend
 pb  - pre-bend
 r   - bend release (if no number after the r, then release immediately)
 /\  - slide into or out of (from/to "nowhere")
 s   - legato slide
 S   - shift slide
<n> - natural harmonic
[n]  - artificial harmonic
n(n) - tapped harmonic
 ~   - vibrato
 tr  - trill
 T   - tap
 TP  - trem. picking
 PM  - palm muting
\n/  - tremolo bar dip; n = amount to dip
 \n  - tremolo bar down
 n/  - tremolo bar up
/n\  - tremolo bar inverted dip
 =   - hold bend; also acts as connecting dev