Tabs by Artist
0-9 A B C D E F G H I J K L M N O P Q R S T U V W X Y Z

COUNTRY BOY

As recorded by Albert Lee

(From the 1971 Album HEAD HANDS & FEET)

Tablature (Tab) for Guitar
Transcribed by Roadkill
Words and Music by Albert Lee, Tony Colton and Raymond Smith


G

3 x 0 0 0 x
C

x 3 2 0 1 0
Em

0 2 2 0 0 0
Eb

x 6 5 3 4 x
Bb

6 x 3 3 3 x
D

x x 0 2 3 2
Am11

x 0 0 0 1 x
A#?7

x 1 x 0 2 x
G/B

x 2 x 0 3 x
E

0 2 2 1 0 0
C#m

x 4 6 6 5 x
B

x 2 4 4 4 x
A

x 0 2 2 2 0



Gtr I (E A D G B E) - 'Gtr. 1'

Gtr II (E A D G B E) - 'Gtr. II'

Gtr III (E A D G B E) - 'Gtr. III'

Gtr IV (E A D G B E) - 'Piano'


 Intro
  Fast Double-Time Feel Q=150
  G
 4/4
  Gtr IV
  W                        +H               +Q.         E
  |                         |                |          |
  /                         /                /          /

  Gtr I
  S S S S E E S S S S Q     S S S S S S S S  S  S S S E E
|------------------------|--------------------------------|
|---------3-----3-----3--|----------3-----0-----0-------0-|
|-----0-------0-----0----|------0-------0---------------0-|
|-4h5---5---5-----5------|--4h5---5---5-------------------|
|------------------------|-------------------3----1h2-----|
|------------------------|----------------------------3---|


  N.C.
   W
  +E  S S S S S S S S S S S S E
|-------------------------------|
|-(0)-------------1---0---------|
|-(0)-------0-------3---0-----0-|
|-------------2p0---------0h2---|
|-----0h1h2---------------------|
|-------------------------------|


                                    G
                                                         2/4
  W                               E E   E E E   E   E E   E   E   E E
                                    |     |     |     |       |     |
                                    /     /     /     /       /     /

  S S S S e S S S S S S a Q     a E S S E E S e   S E E   S E   S Q
|-----------------------------|-----0-0-----------------|-------------|
|-----------------3-5-3-5s8\--|-3s5-----3---------0-----|-------------|
|-3p2p0---2-0-2s4-------------|-------------3p2-----0---|-------0-----|
|-------2---------------------|-------------------------|-0h2-----0---|
|-----------------------------|-------------------------|-------------|
|-----------------------------|-------------------------|-------------|


 4/4
  E   E   E   E E   E   E   E
      |       |     |       |
      /       /     /       /

  S S S S S S E S S S S S S E
|-----------------------------|
|-----------------------------|
|-3p2p0---------3p2p0---------|
|-------2p0-2---------2p0-----|
|-------------------------1p0-|
|-----------------------------|


  Q   E E E E   E   E       E E E   E E E   E    E
  |   | | | |   |   |       | | |   | | |   |    |
  /   / / / /   /   /       / / /   / / /   /    /

  E Q   E E S S S S S S   a E E S S E E S S S E.
|---3-----3-------------|---------------------------||
|-------0---------------|---------------------------||
|-----------------------|-----0-----0-----0---------||
|-----------------0-2p0-|-3s5---5s3---0-0-----------||
|-2---------0h1h2-------|-------------------1p0-----||
|-3---------------------|---------------------------||


   1st & 2nd Verses
    G                     Em      Eb               G        D
    E E   E E   E E E E   E E E E E  E   E   E     Q    E E E E E    E
    | |   | |   | | | |   | | | | |  |   |   |     |    | | | | |    |
    / /   / /   / / / /   / / / / /  /   /   /     /    / / / / /    /

    E E a E S S E E E E   Q   E E E.   S S E   S   Q  a E E Q   S E.
||----------------------|------------------------|----------------------|
||o---------------------|------------------------|----------------------|
||----------0-0---------|------------------------|----------------------|
||--------------0---1---|-2-------1----0-------0-|----------0-----------|
||o-----0h2-------------|-----2----------1p0-----|----0h2-3-----1p0-----|
||--3-------------------|------------------------|-3--------------------|


  G
  E E E   E   E  E   E   E
  | | |   |   |  |   |   |
  / / /   /   /  /   /   /

  Q   S E   S E.   S S E   S
|----------------------------|
|----------------------------|
|-----------0------0-3p2---0-|
|-----0h2-----0--------------|
|----------------------------|
|-3--------------------------|


                              Em      Eb
  E E E   E   E E E   E       E E E E Q    E    E
  | | |   |   | | |   |       | | | | |    |    |
  / / /   /   / / /   /       / / / / /    /    /

  Q   S E   S Q   S e   S   a Q   Q   E. S S E.
|-------------------------|-------------------------|
|-------------------------|-------------------------|
|-0---------0-----------0-|-------------------------|
|-----0h2-----0-----------|-0h2-------1--0----------|
|-----------------1p0-----|-------2--------1p0------|
|-------------------------|-------------------------|


                                   1st & 2nd Choruses
  G       D         G   Am1A#?G/B   C                 G   Am1A#?G/B
  E E E E E E Q     E E Q  Q  Q     E E E E E E E E   E E Q  Q  Q
  | | | | | | |     | | |  |  |     | | | | | | | |   | | |  |  |
  / / / / / / /     / / /  /  /     / / / / / / / /   / / /  /  /

  Q   E E Q   E E   Q   Q  Q  Q     Q   Q   Q   E E   Q   Q  Q  Q
|-----------------|--------------||-----------------|--------------|
|-----------------|--------------||-----------------|--------------|
|-----------------|--------------||-----------------|--------------|
|---------0-------|--------------||-----------------|--------------|
|-----2h3---------|-----0--1--2--||-3---3---3---3---|-----0--1--2--|
|-3-----------0-2-|-3------------||-----------------|-3------------|


  C                   G   Am1A#?7    Eb                Bb
  E E E E E E E   E   E E Q  Q  Q    E E E E E E E E   E  E E E E E E   E
  | | | | | | |   |   | | |  |  |    | | | | | | | |   |  | | | | | |   |
  / / / / / / /   /   / / /  /  /    / / / / / / / /   /  / / / / / /   /

  Q   Q   Q   S S E   Q   Q  Q  Q    Q   Q   Q   Q     H.           S S E
|-------------------|--------------|-----------------|----------------------|
|-------------------|--------------|-----------------|----------------------|
|-------------------|--------------|-----------------|----------------------|
|-------------------|--------------|-----------------|----------------------|
|-3---3---3---3-3-0-|-----0--1--2s=|=6---6---6---6---|----------------------|
|-------------------|-3------------|-----------------|-6------------6h8-----|


  Eb                G
  E E E E E E E E   W
  | | | | | | | |   |
  / / / / / / / /   /

  Q   Q   Q   E E   S S S S E S S S S S S Q
|-----------------|--------------------------|
|-----------------|---------3-------3-----3--|
|-----------------|-----0---------0-----0----|
|-----------------|-4h5---5---4h5-----5------|
|-6---6---6---6---|--------------------------|
|-----------------|--------------------------|
|
| Gtr II
| W                 S S S S E E   S S S S Q
|-----------------|--------------------------|
|-----------------|---------3-------3-----3--|
|-----------------|-----0---------0-----0----|
|-----------------|-4h5---5---5-------5------|
|-----------------|--------------------------|
|-----------------|--------------------------|


                                   N.C.
  +H               +Q.         E    W
   |                |          |
   /                /          /

   S S S S S S S S  S  S S S E E   +E  S S S S S S S S S S S S E
|--------------------------------|---------------------------------|
|----------3-----0-----0-------0-|-(0)-------------1---0-----------|
|------0-------0---------------0-|-(0)-------0-------3---0-----0---|
|--4h5---5---5-------------------|-------------2p0---------0h2-----|
|-------------------3----1h2-----|-----0h1h2-----------------------|
|----------------------------3---|---------------------------------|
|
|  S S S S S S S S  S  S S S E E   +E  S S S S S S S S S S S S E
|--------------------------------|---------------------------------|
|----------3-----0-----0-------0-|-(0)-------------1---0-----------|
|------0-------0---------------0-|-(0)-------0-------3---0-----0---|
|--4h5---5---5-------------------|-------------2p0---------0h2-----|
|-------------------3----1h2-----|-----0h1h2-----------------------|
|----------------------------3---|---------------------------------|


  1.
                                    G
                                                             2/4
  W                               E E   E E   E   E   E E     E   E   E E
                                    |     |       |     |         |     |
                                    /     /       /     /         /     /

  S S S S e S S S S S S a Q     a E S S E S S S S S S E S S   S S S S E E
|-----------------------------|-----0-0---------------------|--------------|
|-----------------3-5-3-5s8\--|-3s5-----3-0-0---------------|--------------|
|-3p2p0---2-0-2s4-------------|---------------3p2-2-0-0-0-0-|-----0-0---0--|
|-------2---------------------|-----------------------------|-0h2-----0----|
|-----------------------------|-----------------------------|--------------|
|-----------------------------|-----------------------------|--------------|
|
| S S S S e S S S S S S a Q     a E S S E E   S e   S E E     S E   S Q
|-----------------------------|-----0-0---------------------|--------------|
|-----------------3-5-3-5s8\--|-3s5-----3-----------0-------|--------------|
|-3p2p0---2-0-2s4-------------|---------------3p2-----0-----|-------0------|
|-------2---------------------|-----------------------------|-0h2-----0----|
|-----------------------------|-----------------------------|--------------|
|-----------------------------|-----------------------------|--------------|


 4/4
  E   E   E   E   E   E   E   E
      |       |       |       |
      /       /       /       /

  S S S S S S S S S S S S S S E
|-------------------------------|
|-------------------------------|
|-3p2p0-------0---3p2p0---------|
|-------2p0-2---0-------2p0-----|
|---------------------------1p0-|
|-------------------------------|
|
| S S S S S S E   S S S S S S E
|-------------------------------|
|-------------------------------|
|-3p2p0-----------3p2p0---------|
|-------2p0-2-----------2p0-----|
|---------------------------1p0-|
|-------------------------------|


  Q   E E E E   E   E       E E E   E E E   E    E
  |   | | | |   |   |       | | |   | | |   |    |
  /   / / / /   /   /       / / /   / / /   /    /

  E Q   E E S S S S S S   a E E S S E E S S S E.
|---3-----3-------------|---------------------------||
|-------0---------------|--------------------------o||
|-----------------------|-----0-----0-----0---------||
|-----------------0-2p0-|-3s5---5s3---0-0-----------||
|-2---------0h1h2-------|-------------------1p0----o||
|-3---------------------|---------------------------||
|
| E Q   E E S S S S S S   a E E S S E E S S S E.
|---3-----3-------------|---------------------------||
|-------0---------------|--------------------------o||
|-----------------------|-----0-----0-----0---------||
|-----------------0-2p0-|-3s5---5s3---0-0-----------||
|-2---------0h1h2-------|-------------------1p0----o||
|-3---------------------|---------------------------||


                          1st Guitar Solo
  2.
  N.C.                       E
  W                          E E  E   E   E   E   E E
                             | |  |   |   |   |   | |
                             / /  /   /   /   /   / /

  E S S S S S S H          a E E  S S S S S S S S E E
|-----------------------||--------------------0-------|
|-----------------------||-----0----0-----0-------0---|
|---------------0-------||-3h4----4---3h4---4---4---4-|
|---------0-2p0---------||----------------------------|
|---0h1h2---------------||----------------------------|
|-3---------------------||----------------------------|
|
|                            PM------------------------
| E S S S S S S E E E E      Q    Q       Q       Q
|-----------------------||----------------------------|
|-----------------------||----------------------------|
|---------------0-------||----------------------------|
|---------0-2p0---------||----------------------------|
|---0h1h2---------------||----------------2-------3---|
|-3---------------3-2-1-||---0---/4-------------------|


  C#m             C
  E   E    E    E E   E    E    E
  |   |    |    | |   |    |    |
  /   /    /    / /   /    /    /

  S S S S +S  S E S S S S +S  S E
|-----------------------------------|
|-----5-------5-------5-------5-----|
|-4s6---6-(6)---6-0h5---5-(5)---5---|
|-----------------------------------|
|-----------------------------------|
|-----------------------------------|
|
|-------------------------|
| Q        Q      Q        Q
|-----------------------------------|
|-----------------------------------|
|-----------------------------------|
|-----------------------------------|
|-4---------------3-----------------|
|----------4---------------3--------|


  E            B
  E   E  E   E E   E   E    E
  |   |  |   | |   |   |    |
  /   /  /   / /   /   /    /

  S S E  S S E S S S S S  E   S
|--------4-------3-----0--------|
|-----0------0-----0------0-----|
|-0h4------4---3-----2--------1-|
|-------------------------------|
|-------------------------------|
|-------------------------------|
|
| PM-----------------------------
| Q      E   E Q       E.     S
|-------------------------------|
|-------------------------------|
|-------------------------------|
|-------------------------------|
|------------0-2--------------0-|
|-0-----/4-------------4\-------|


  E
  E  E    E   E   E E E  E   E E    E   E   E   E   E   E
  |  |    |   |   | | |  |   | |    |   |   |   |   |   |
  /  /    /   /   / / /  /   / /    /   /   /   /   /   /

  E.   S  S S S S H          E S S  S S S S S S S S S S E
|--------------------------|--------------------7-9p7---7--|
|-----------------5--------|-5-7-8--7-5---5-7s9-------9----|
|-----------4-6-4----------|------------6------------------|
|-2----4s=6----------------|-------------------------------|
|--------------------------|-------------------------------|
|--------------------------|-------------------------------|
|
|---------------------------------------------------|
| Q       Q       Q   Q      Q      Q       Q       Q
|--------------------------|-------------------------------|
|--------------------------|-------------------------------|
|--------------------------|-------------------------------|
|--------------------------|-------------------------------|
|--------/4-------2--------|----------------2-------3------|
|-0-------------------4\---|-0-----/4----------------------|


    C#m          C
     E E  E  E    E     E     E   E
     | |  |  |    |     |     |   |
     / /  /  /    /     /     /   /

  a  Q    E  S S  S  S  S  S  e   S S
|-9h12---12-10p9-----9----------------|
|----------------12----12-11-10---7-8-|
|-------------------------------------|
|-------------------------------------|
|-------------------------------------|
|-------------------------------------|
|
|    PM--------------------------------
|    Q    Q       E.       S  S E   S
|-------------------------------------|
|-------------------------------------|
|-------------------------------------|
|-----------------------------0h2---0-|
|----4------------3--------3----------|
|---------4---------------------------|


  E                B                 E
  E   E    E   E   E   E   E   E     E   E   E   E    E E E E
  |   |    |   |   |   |   |   |     |   |   |   |    | | | |
  /   /    /   /   /   /   /   /     /   /   /   /    / / / /

  S S S S  S S S S S S S S S S S S   S S S S S S S S  E Q   E
|---7------------------------------|--------------------0------|
|-9---9-8p=7---8p7-----------------|--------------------0------|
|------------9-----9-7-------------|--------------------1---1--|
|----------------------9-8-7-0-5-6-|---------------------------|
|----------------------------------|-7-5-----------------------|
|----------------------------------|-----7-6-5-0-3h4--0--------|
|
|---------------------------------------------------------|
| Q        E   E   Q       E   E     Q       Q        Q   Q
|----------------------------------|---------------------------|
|----------------------------------|---------------------------|
|----------------------------------|---------------------------|
|------------------------------1---|-2-------0-----------------|
|--------------0---2-------4-------|-----------------/4---2----|
|-0-------/4-----------------------|---------------------------|


    A                         E
    E E   E E E   E   E   E   E   E   E   E   E E E   E
    | |   | | |   |   |   |   |   |   |   |   | | |   |
    / /   / / /   /   /   /   /   /   /   /   / / /   /

  a E E a E E S E   S E a E   S S S S S S S S E E S S E
|-----------------------7s9-|-7-------------------------|
|-----------5-7-5-----5-----|---9-8p7-------------------|
|-----0-4s6---------6-------|---------9-7---------------|
|-2s7-----------------------|-------------9-8-7-5-------|
|---------------------------|---------------------7-6-5-|
|---------------------------|---------------------------|
|
|   Q     Q   Q       Q       Q       Q       Q   Q
|---------------------------|---------------------------|
|---------------------------|---------------------------|
|---------------------------|---------------------------|
|---------------------------|---------------------------|
|---0-----0---4-------0-----|---------5-------4---2-----|
|---------------------------|-0-------------------------|


  A
  E   E  E    E E E E   E
  |   |  |    | | | |   |
  /   /  /    / / / /   /

  E a E +S  S E E E S S S S
|----------------------------|
|----------------------------|
|----------------------------|
|-----------2-4-5-2-4---2-4s=|
|-0-2s4-(4)-----------4------|
|----------------------------|
|
| Q      Q      Q   Q
|----------------------------|
|----------------------------|
|----------------------------|
|----------------------------|
|-0--------------------------|
|--------3------2---1--------|


  E
  E     E  E   E   E   E    E  E
  |     |  |   |   |   |    |  |
  /     /  /   /   /   /    /  /

                               PM|
  S S a E  S S S S S S S S  E  S S
|--------------------7-9-7-12\-----||
|----------7---5-7s9-----------0-0-||
|---4-4s6----6---------------------||
|-6--------------------------------||
|----------------------------------||
|----------------------------------||
|
| Q        Q       Q        Q
|----------------------------------||
|----------------------------------||
|----------------------------------||
|----------------------------------||
|---------/4-------2---------------||
|-0-------------------------4\-----||


    C                        G
    E E E   E   E E E    E   E   E    E   E   E   E   E  E
    | | |   |   | | |    |   |   |    |   |   |   |   |  |
    / / /   /   / / /    /   /   /    /   /   /   /   /  /

  a E E S E   S E E S E.     S S S S  S S S S S S S S E  E
|--------------------------|----------------------------------|
|-------5-----5h6-5--------|-----6----6-----------------------|
|-----5---5---------7p5----|-6h7---7----7---------------------|
|-2s5----------------------|--------------8s7-5---5h7-5--5\---|
|--------------------------|--------------------7-------------|
|--------------------------|----------------------------------|
|
|   Q   Q       Q   Q        Q        Q       Q       E  E
|--------------------------|----------------------------------|
|--------------------------|----------------------------------|
|--------------------------|----------------------------------|
|--------------------------|---------/2-----------------------|
|---3-----------3----------|------------------5---------------|
|-------3-----------3------|-3------------------------7\------|


    C                          G
    E E E   E   E E E    E     W
    | | |   |   | | |    |     |
    / / /   /   / / /    /     /

                               Gtrs I, II
  a E E S E   S E E S  E   S   S S S S E S S S S S S Q
|----------------------------|--------------------------|
|-------5-----5h6-5----------|---------3-------3-----3--|
|-----5---5---------7p=5---0-|-----0-------------0-0----|
|-2s5------------------------|-4h5---5---4h5-5----------|
|----------------------------|--------------------------|
|----------------------------|--------------------------|
|
|   Q   Q       Q   E    E     W
|----------------------------|--------------------------|
|----------------------------|--------------------------|
|----------------------------|--------------------------|
|----------------------------|--------------------------|
|---3-----------3------------|--------------------------|
|-------3-----------5\-------|--------------------------|


  +H               +Q.         E
   |                |          |
   /                /          /

   S S S S S S S S  S  S S S E E
|----------------------------------|
|----------3-----0-----0-------0---|
|------0-------0---------------0---|
|--4h5---5---5---------------------|
|-------------------3----1h2-------|
|----------------------------3-----|
|
|  W
|----------------------------------|
|----------------------------------|
|----------------------------------|
|----------------------------------|
|----------------------------------|
|----------------------------------|


  N.C.
   W                              W
  +E  S S S S S S S S S S S S E   S S S S e S S S S S S a Q
|-------------------------------|-----------------------------|
|-(0)-------------1---0---------|-----------------3-5-3-5h8\--|
|-(0)-------0-------3---0-----0-|-3p2p0---2-0-2s4-------------|
|-------------2p0---------0h2---|-------2---------------------|
|-----0h1h2---------------------|-----------------------------|
|-------------------------------|-----------------------------|


      G
                               2/4
    E E   E E   E   E   E E     E   E   E E
      |     |       |     |         |     |
      /     /       /     /         /     /

  a E S S E S S S S S S E S S   S S S S E E
|-----0-0---------------------|--------------|
|-3s5-----3-----------0-------|--------------|
|-----------0-0-3p2-2---0-0-0-|-----0-0---0--|
|-----------------------------|-0h2-----0----|
|-----------------------------|--------------|
|-----------------------------|--------------|


 4/4
  E   E   E   E   E   E   E   E
      |       |       |       |
      /       /       /       /

  S S S S S S S S S S S S S S E
|-------------------------------|
|-------------------------------|
|-3p2p0-------0---3p2p0---------|
|-------2p0-2---0-------2-0-----|
|---------------------------1p0-|
|-------------------------------|
|
| W
|-------------------------------|
|-------------------------------|
|-------------------------------|
|-------------------------------|
|-------------------------------|
|-------------------------------|


  Q   E E E E   E   E     E   E E E   E E E   E
  |   | | | |   |   |     |   | | |   | | |   |
  /   / / / /   /   /     /   / / /   / / /   /

  Gtr I
  E Q   E Q     Q         E   E E S S E E S S S S
|---3-----3-------------|--------------------------||
|---0---0-------0-------|-5b6-5-3---5---3----------||
|-----------------------|-5b6-5-3---5---3----------||
|-----------------------|---------5-------5---3p0--||
|-----------------------|-------------------5------||
|-3---------------------|--------------------------||
|
| Gtr II
| E Q   E E S S S S S S   Q     Q     Q   E   E
|---3-----3-------------|--------------------------||
|-------0---------------|--------------------------||
|-----------------------|--------------------------||
|-----------------0-2p0-|-3-----2-----0------------||
|-2---------0h1h2-------|-----------------1p==0----||
|-3---------------------|--------------------------||


 3rd Verse
  G                                             Em                      Eb
  E E     E     E     E     E     E     E       E     E     E     E     E     E     E     E
  | |     |     |     |     |     |     |       |     |     |     |     |     |     |     |
  / /     /     /     /     /     /     /       /     /     /     /     /     /     /     /

  e S  S  S  S  S  S  S  S  S  S  S  S  S  S    S  S  S  S  S  S  S  S  S  S  S  S  S  S  S  S
|---------------------------------------------|-------------------------------------------------|
|---------------------------------------------|-------------------------------------------------|
|---------------------------------------------|-------0-------(0)-0-------(0)-0-----3-(0)-0-(3)-|
|---------0-------(0)-0-------(0)-0-----1-(0)-|-2-(1)---(2)-2-------(2)-1-------(1)-------------|
|---2-------(2)-2-------(2)-2-------(2)-------|-------------------------------------------------|
|-3---(3)-------------------------------------|-------------------------------------------------|


  G                       D
  Q           E     E     E     E     E     E
  |           |     |     |     |     |     |
  /           /     /     /     /     /     /

  S  S  S  S  S  S  S  S  S  S  S  S  S  S  S  S
|--------------------------------------------------|
|-------------3-------(3)--------------------------|
|---(0)-4-------(4)-4-----5-(4)-2-(5)---(2)--------|
|-5-------(5)-------------------------4-------(4)--|
|--------------------------------------------------|
|--------------------------------------------------|


  G
  E E   E     E     E     E     E     E       E     E     E     E     E     E   E     E
  | |   |     |     |     |     |     |       |     |     |     |     |     |   |     |
  / /   /     /     /     /     /     /       /     /     /     /     /     /   /     /

                          PM-----------------------------------------------------------------
  E S S S  S  S  S  S  S  S  S  S  S  S  S    S  S  S  S  S  S  S  S  S  S  S S S  S  S  S
|-------------------------------------------|-----------------------------------------------|
|-------3-------(3)-------------------------|-----------------------------------------------|
|---4-----(4)-5-----4-(5)---(4)-------------|-----------------------------------------------|
|-------------------------5-----4-(5)-0-(4)-|-5-(0)-4-(5)-2-(4)-0-(2)---(0)-0---2-(0)-0-(2)-|
|-------------------------------------------|-----------------------------------------------|
|-------------------------------------------|-----------------------------------------------|


  Em                      Eb
  E     E     E     E     Q           E     E
  |     |     |     |     |           |     |
  /     /     /     /     /           /     /

 ---------------------------------------------|
  S  S  S  S  S  S  S  S  S  S  S  S  S  S  S  S
|--------------------------------------------------|
|--------------------------------------------------|
|--------------------------------------------------|
|-2-(0)-2-(2)-2-(2)-2-(2)-1-(2)-1-(1)-1-(1)-1-(1)--|
|--------------------------------------------------|
|--------------------------------------------------|


  G                       D
  E     E     E     E     E     E     Q
  |     |     |     |     |     |     |
  /     /     /     /     /     /     /

  PM------|
  S  S  S  S  S  S  S  S  S  S  S  S  S  S  S  S
|-------------------------------------------------|
|-------------------3-------(3)-------------------|
|-------------4-------(4)-5-----4-(5)-2-(4)---(2)-|
|-0-(1)-5-(0)---(5)-------------------------4-----|
|-------------------------------------------------|
|-------------------------------------------------|


                                                    3rd Chorus
  G           Am11        A#?7        G/B            C
  E     E     Q           Q           Q              E     E     E     E     E     E     E     E
  |     |     |           |           |              |     |     |     |     |     |     |     |
  /     /     /           /           /              /     /     /     /     /     /     /     /

  PM---------------------------------------------------------------------------------------------|
  S  S  S  S  S  S  S  S  S  S  S  S  S  S  S  S     S  S  S  S  S  S  S  S  S  S  S  S  S  S  S  S
|-------------------------------------------------||-------------------------------------------------|
|-------------------------------------------------||-------------------------------------------------|
|-0-------(0)-------------------------------------||-------------------------------------------------|
|---(4)-2-----0-(2)---(0)-------------------------||-------2-------(2)-2-------(2)-2-------(2)-2-----|
|-------------------2-----1-(2)-0-(1)---(0)-2-----||-3-(2)---(3)-3-------(3)-3-------(3)-3-------(3)-|
|-------------------------------------3-------(3)-||-------------------------------------------------|


  G         Am11        A#?7        G/B           C
  E     E   Q           Q           Q             E     E   E     E     E     E     E     E
  |     |   |           |           |             |     |   |     |     |     |     |     |
  /     /   /           /           /             /     /   /     /     /     /     /     /

  S  S  S S S  S  S  S  S  S  S  S  S  S  S  S    S  S  S S S  S  S  S  S  S  S  S  S  S  S  S
|-----------------------------------------------|-----------------------------------------------|
|-----------------------------------------------|-----------------------------------------------|
|-------4---4-(4)-4-(4)-4-(4)-4-(4)-4-(4)-4-(4)-|---(4)-----------------------------------------|
|---(2)-----------------------------------------|-------2---5-(2)-2-(5)---(2)-2-----5-(2)-2-(5)-|
|-----------------------------------------------|-----------------------3-------(3)-------------|
|-----------------------------------------------|-----------------------------------------------|


  G           Am11        A#?7        G/B
  E     E     Q           Q           Q
  |     |     |           |           |
  /     /     /           /           /

  S  S  S  S  S  S  S  S  S  S  S  S  S  S  S  S
|-------------------------------------------------|
|-------------------------------------------------|
|-------------------------------------------------|
|---(2)-------------------------------------------|
|-------2-----5-(2)-2-(5)---(2)-2-----5-(2)-2-(5)-|
|-3-------(3)-------------3-------(3)-------------|


  Eb
  E     E     E     E     E     E     E     E
  |     |     |     |     |     |     |     |
  /     /     /     /     /     /     /     /

  PM-----------------------------------------------
  S  S  S  S  S  S  S  S  S  S  S  S  S  S  S  S
|-------------------------------------------------|
|-------------------------------------------------|
|-------0-----3-(0)-0-(3)---(0)-0-----3-(0)-0-(3)-|
|-1-------(1)-------------1-------(1)-------------|
|---(2)-------------------------------------------|
|-------------------------------------------------|


  Bb                                                Eb
  E     E     E     E     E     E     E     E       E     E     E     E     E     E     E     E
  |     |     |     |     |     |     |     |       |     |     |     |     |     |     |     |
  /     /     /     /     /     /     /     /       /     /     /     /     /     /     /     /

 -----------------------------------------------------------------------------------------------|
  S  S  S  S  S  S  S  S  S  S  S  S  S  S  S  S    S  S  S  S  S  S  S  S  S  S  S  S  S  S  S  S
|-------------------------------------------------|-------------------------------------------------|
|-------------------------------------------------|-------------------------------------------------|
|---(0)-------------------------------------------|-------0-----3-(0)-0-(3)---(0)-0-----3-(0)---(3)-|
|-------0-----3-(0)-0-(3)---(0)-0-------(0)-0-----|-1-(0)---(1)-------------1-------(1)-------------|
|-1-------(1)-------------1-------(1)-3-------(3)-|-------------------------------------------------|
|-------------------------------------------------|-------------------------------------------------|


  G
  W                          +H               +Q.         E
  |                           |                |          |
  /                           /                /          /

  Gtr II
  S S S S E S S S S S S Q     S S S S S S S S  S  S S S E E
|--------------------------|--------------------------------|
|---------3-------3-----3--|----------3-----0-----0-------0-|
|-----0---------0-----0----|------0-------0---------------0-|
|-4h5---5---4h5-----5------|--4h5---5---5-------------------|
|--------------------------|-------------------3----1h2-----|
|--------------------------|----------------------------3---|


  N.C.
  W
  E S S S S S S S S S S S S E
|------------------------------|
|-0-------------1---0----------|
|-0-------0-------3---0-----0--|
|-----------2p0---------0h2----|
|---0h1h2----------------------|
|------------------------------|


                                    2nd Guitar Solo
                                     E
  W                                  E     E     E     E     E     E     E     E
                                     |     |     |     |     |     |     |     |
                                     /     /     /     /     /     /     /     /

  Gtr I
                  PM------------------------------------------------------------------
  H             E S S S  S  S  S     S  S  S  S  S  S  S  S  S  S  S  S  S  S  S  S
|---------------------------------||-------------------------------------------------|
|---------------------------------||-------------------------------------------------|
|---------------------------------||-------------------------------------------------|
|---------------------------------||-------------------------2-------(2)-------------|
|---------------------0-----2-(0)-||---(2)-------2-----4-(2)---(4)-4-----2-(4)---(2)-|
|-----------------3-----(3)-------||-0-----4-(0)---(4)-------------------------4-----|
|
| Gtr II
| E S S S S S S E e   e     e        W
|---------------------------------||-------------------------------------------------|
|---------------------------------||-------------------------------------------------|
|---------------0-----------------||-------------------------------------------------|
|---------0-2-0-------------------||-------------------------------------------------|
|---0-1-2-------------------------||-------------------------------------------------|
|-3---------------3---2-----1-----||-------------------------------------------------|


  A
  E     E     E     E     E     E     E     E
  |     |     |     |     |     |     |     |
  /     /     /     /     /     /     /     /

 ---------------------------------------------|
  S  S  S  S  S  S  S  S  S  S  S  S  S  S  S  S
|---------------------------------------------------|
|---------------------------------------------------|
|-------------------------2-----0-(2)---(0)---------|
|-------------2-----4-(2)---(4)-------4-----2-(4)---|
|-0-----4-(0)---(4)---------------------------------|
|---(4)---------------------------------------------|
|
| W
|---------------------------------------------------|
|---------------------------------------------------|
|---------------------------------------------------|
|---------------------------------------------------|
|---------------------------------------------------|
|---------------------------------------------------|


  D
  E     E     E     E     E     E     E     E
  |     |     |     |     |     |     |     |
  /     /     /     /     /     /     /     /

  PM-----------------------------------------------
  S  S  S  S  S  S  S  S  S  S  S  S  S  S  S  S
|-------------------------------------------------|
|-------------------0-----3-(0)-1-(3)-0-(1)---(0)-|
|-------------2-------(2)-------------------2-----|
|-0-(2)-4-(0)---(4)-------------------------------|
|-------------------------------------------------|
|-------------------------------------------------|


  G           N.C.
  E     E     Q           H                         W
  |
  /

 -----------------------------------------------------------------------------------------------|
  S  S  S  S  S  S  S  S  S  S  S  S  S  S  S  S    S  S  S  S  S  S  S  S  S  S  S  S  S  S  S  S
|-------------------------------------------------|-------------------------------------------------|
|-------------------------------------------------|-------------------------------------------------|
|---(2)-------------------------------------------|-------------------------------------------------|
|-------------------------0-----2-(0)-3-(2)-0-(3)-|-2-(0)---(2)-0-------(0)-------------------------|
|-------0-----1-(0)-2-(1)---(2)-------------------|-------3-------(3)-2-----3-(2)---(3)-------------|
|-3-------(3)-------------------------------------|-------------------------------3-----2-(3)-1-(2)-|


  E
  E     E     E     E     E     E     E     E
  |     |     |     |     |     |     |     |
  /     /     /     /     /     /     /     /

  PM-----------------------------------------------
  S  S  S  S  S  S  S  S  S  S  S  S  S  S  S  S
|-------------------------------------------------|
|-------------------------------------------------|
|-------------------------------------------------|
|-------------------------2-----4-(2)-5-(4)-6-(5)-|
|-------------2-----4-------(4)-------------------|
|-0-(1)-4-(0)---(4)---(2)-------------------------|


  A                                                 D
  E     E     E     E     E     E     E     E       E     E     E     E     E     E     E     E
  |     |     |     |     |     |     |     |       |     |     |     |     |     |     |     |
  /     /     /     /     /     /     /     /       /     /     /     /     /     /     /     /

 -----------------------------------------------------------------------------------------------|
  S  S  S  S  S  S  S  S  S  S  S  S  S  S  S  S    S  S  S  S  S  S  S  S  S  S  S  S  S  S  S  S
|-------------------------------------------------|-------------------------------------------------|
|-------------------------------------------------|-------------------------------------------------|
|-------------------------------------------------|-------------------------------------------------|
|-7-(6)-4-(7)-5-(4)---(5)-4-------(4)-------------|-------4-----7-(4)-4-(7)---(4)-4-----7-(4)-4-(7)-|
|-------------------7-------(7)-5-----7-(5)-4-(7)-|-5-(4)---(5)-------------5-------(5)-------------|
|-------------------------------------------------|-------------------------------------------------|


  G           N.C.
  E     E     Q           H
  |
  /

  PM------------------|
  S  S  S  S  S  S  S  S  S  S  S  S  S  S  S  S
|-------------------------------------------------|
|-------------------------------------------------|
|-------------------------4-----5-(4)-6-(5)-7-(6)-|
|---(4)-------5-----7-(5)---(7)-------------------|
|-5-----7-(5)---(7)-------------------------------|
|-------------------------------------------------|


                                                    E
  W                                                 E     E     E     E     E     E     E     E
                                                    |     |     |     |     |     |     |     |
                                                    /     /     /     /     /     /     /     /

  S  S  S  S  S  S  S  S  S  S  S  S  S  S  S  S    S  S  S  S  S  S  S  S  S  S  S  S  S  S  S  S
|-------------------------------------------------|-------------------------------------------------|
|-5-----6-(5)---(6)-------------------------------|-------------------------------------------------|
|---(7)-------7-----5-(7)-4-(5)---(4)-------------|-------------------------------------------------|
|-------------------------------7-----4-(7)-3-(4)-|-2-(3)---(2)-------------2-----0-(2)---(0)-------|
|-------------------------------------------------|-------------2-----4-(2)---(4)-------4-----2-(4)-|
|-------------------------------------------------|-------4-------(4)-------------------------------|


  A
  E     E     E     E     E     E     E     E
  |     |     |     |     |     |     |     |
  /     /     /     /     /     /     /     /

  S  S  S  S  S  S  S  S  S  S  S  S  S  S  S  S
|-------------------------------------------------|
|-------------------------------------------------|
|-------------------------2-----4-(2)-5-(4)-6-(5)-|
|-------------2-----4-(2)---(4)-------------------|
|-0-(2)-4-(0)---(4)-------------------------------|
|-------------------------------------------------|


  D                                                 G           N.C.
  E     E     E     E     E     E     E     E       E     E     Q           H
  |     |     |     |     |     |     |     |       |
  /     /     /     /     /     /     /     /       /

  S  S  S  S  S  S  S  S  S  S  S  S  S  S  S  S    S  S  S  S  S  S  S  S  S  S  S  S  S  S  S  S
|-------------------------5-------(5)-5-------(5)-|-3-----3-(3)-5-(3)-5-(5)-6-(5)-6-(6)-7-(6)-7-(7)-|
|-------5-----6-(5)-7-(6)---(7)-7-------(7)-7-----|---(7)-5-----6-(5)-6-(6)-7-(6)-7-(7)-8-(7)-8-(8)-|
|-7-(6)---(7)-------------------------------------|----4--------------------------------------------|
|-------------------------------------------------|-------------------------------------------------|
|-------------------------------------------------|-------------------------------------------------|
|-------------------------------------------------|-------------------------------------------------|


                                                                   E
   W                                                                E       E       E       E       E       E       E       E
                                                                    |       |       |       |       |       |       |       |
                                                                    /       /       /       /       /       /       /       /

   S  S   S   S   S   S   S   S   S   S   S   S   S   S   S   S     S   S   S   S   S   S   S   S   S   S   S   S   S   S   S   S
|-10-(7)-10-(10)-12-(10)-12-(12)-13-(12)-13-(13)-13-(13)-13-(13)-|-13-(13)-12-(13)----(12)-12---------(12)-12---------(12)-12------|
|-12-(8)-12-(12)-13-(12)-13-(13)-15-(13)-15-(15)-15-(15)-15-(15)-|-15-(15)----(15)-15---------(15)-15---------(15)-15---------(15)-|
|----------------------------------------------------------------|-----------------------------------------------------------------|
|----------------------------------------------------------------|-----------------------------------------------------------------|
|----------------------------------------------------------------|-----------------------------------------------------------------|
|----------------------------------------------------------------|-----------------------------------------------------------------|


  A
   E       E       E       E       E       E       E       E
   |       |       |       |       |       |       |       |
   /       /       /       /       /       /       /       /

   S   S   S   S   S   S   S   S   S   S   S   S   S   S   S   S
|-12-(12)----(12)-------------------------------------------------|
|---------14------15-(14)-12-(15)-14-(12)----(14)-12---------(12)-|
|-----------------------------------------14---------(14)-12------|
|-----------------------------------------------------------------|
|-----------------------------------------------------------------|
|-----------------------------------------------------------------|


  D                                                             G             N.C.
   E       E       E      E       E      E      E       E       E       E      Q               H
   |       |       |      |       |      |      |       |       |
   /       /       /      /       /      /      /       /       /

   S   S   S   S   S   S  S   S   S  S   S   S  S   S   S  S    S   S   S  S   S   S   S   S   S   S   S   S   S   S   S   S
|-------------------------------------------------------------|-------------------------------10------12-(10)-13-(12)-14-(13)-|
|-10---------(10)---------------------------------------------|-----------------------12---------(12)-------------------------|
|----(12)-11------12-(11)-9-(12)-11-(9)----(11)-9---------(9)-|---------------12---------(12)---------------------------------|
|---------------------------------------12--------(12)-10-----|-9-(10)-12-(9)----(12)-----------------------------------------|
|-------------------------------------------------------------|---------------------------------------------------------------|
|-------------------------------------------------------------|---------------------------------------------------------------|


   W
   S   S   S   S   S   S   S   S   S   S   S   S   S   S   S   S
|-15-(14)-12-(15)-13-(12)----(13)-12---------(12)-----------------|
|-------------------------15---------(15)-13------15-(13)-12-(15)-|
|-----------------------------------------------------------------|
|-----------------------------------------------------------------|
|-----------------------------------------------------------------|
|-----------------------------------------------------------------|


  E
   E       E          E          E          E          E          E          E
   |       |          |          |          |          |          |          |
   /       /          /          /          /          /          /          /

   S   S   S      S   S   S      S      S   S   S      S      S   S   S      S   S
|-12------------(12)-12---------------(12)-12---------------(12)-12------------(12)-|
|----(12)-15b17---------(15)b17-15b17---------(15)b17-15b17---------(15)b17-15------|
|-----------------------------------------------------------------------------------|
|-----------------------------------------------------------------------------------|
|-----------------------------------------------------------------------------------|
|-----------------------------------------------------------------------------------|


  A                                                                 D
   E       E       E       E       E       E       E       E         E       E      E      E     E     E      E      E
   |       |       |       |       |       |       |       |         |       |      |      |     |     |      |      |
   /       /       /       /       /       /       /       /         /       /      /      /     /     /      /      /

   S   S   S   S   S   S   S   S   S   S   S   S   S   S   S   S     S   S   S   S  S   S  S  S  S  S  S   S  S  S   S  S
|-12---------(12)-------------------------------------------------|--------------------------------------------------0-----|
|----(15)-14------15-(14)-12-(15)-14-(12)----(14)-12---------(12)-|-10---------(10)-8--------(8)-7--------(7)-0--------(0)-|
|-----------------------------------------14---------(14)-12------|----(12)-11--------(11)-9-------(9)-9/-------(9)/-------|
|-----------------------------------------------------------------|--------------------------------------------------------|
|-----------------------------------------------------------------|--------------------------------------------------------|
|-----------------------------------------------------------------|--------------------------------------------------------|


  G              N.C.
   E      E       Q               H
   |
   /

   S  S   S   S   S   S   S   S   S   S   S   S   S   S   S   S
|-19-(0)-15-(19)-17-(15)----(17)-15---------(15)-13---------(13)-|
|------------------------18---------(18)-17---------(17)-15------|
|----------------------------------------------------------------|
|----------------------------------------------------------------|
|----------------------------------------------------------------|
|----------------------------------------------------------------|


                                                               E
   W                                                           E     E     E     E     E     E     E     E
                                                               |     |     |     |     |     |     |     |
                                                               /     /     /     /     /     /     /     /

   S   S   S   S   S   S   S   S  S   S   S  S  S   S  S  S    S  S  S  S  S  S  S  S  S  S  S  S  S  S  S  S
|-12---------(12)-10---------(10)-8---------(8)-7--------(7)-|-------0-------(0)-------------------------------|
|----(15)-13---------(13)-12--------(12)-10-------(10)-8-----|---(8)-0-------(0)-------------------------------|
|------------------------------------------------------------|-------------------------------------------------|
|------------------------------------------------------------|-------------------------2-------(2)-0-------(0)-|
|------------------------------------------------------------|-------------------2-------(2)-4-------(4)-2-----|
|------------------------------------------------------------|-0-------(0)-4-------(4)-------------------------|


  A
  E     E     E     E     E     E     E     E
  |     |     |     |     |     |     |     |
  /     /     /     /     /     /     /     /

  S  S  S  S  S  S  S  S  S  S  S  S  S  S  S  S
|-------------------------------------------------|
|-------------------------2-------(2)-------------|
|-------------------------2-----0-(2)---(0)-------|
|-------------2-----4-(2)---(4)-------4-----2-(4)-|
|-0-(2)-4-(0)---(4)-------------------------------|
|-------------------------------------------------|


  D                                                 G           N.C.
  E     E     E     E     E     E     E     E       E     E     Q           H
  |     |     |     |     |     |     |     |       |
  /     /     /     /     /     /     /     /       /

  S  S  S  S  S  S  S  S  S  S  S  S  S  S  S  S    S  S  S  S  S  S  S  S  S  S  S  S  S  S  S  S
|-------------------------------------------------|-------------------------------------------------|
|-------------------------------------------------|-------------------------------------------------|
|-------------2-------(2)-------------------------|-------------------------------------------------|
|-0-(2)-4-(0)---(4)-4-----0-(4)-4-(0)-4-(4)-0-(4)-|---(0)-5-------(5)-6-------(6)-7-------(7)-8-----|
|-------------------------------------------------|-------------------------------------------------|
|-------------------------------------------------|-3-------(3)-4-------(4)-5-------(5)-6-------(6)-|


  W
  S  S  S  S  S  S   S  S  S   S   S  S   S   S  S   S
|-------------------------------------------------------|
|-------------------------------------------------------|
|-------------------------------------------------------|
|---(8)-9-------(9)-10-------(10)-11--------(11)--------|
|-------------------------------------------------------|
|-7-------(7)-8--------(8)-9---------(9)-10--------(10)-|


  E                                               A
  E   E     E     E     E     E     E     E       E     E     E     E     E     E     E     E
  |   |     |     |     |     |     |     |       |     |     |     |     |     |     |     |
  /   /     /     /     /     /     /     /       /     /     /     /     /     /     /     /

  S S S  S  S  S  S  S  S  S  S  S  S  S  S  S    S  S  S  S  S  S  S  S  S  S  S  S  S  S  S  S
|-----0-------(0)-------------------------------|-------------------------------------------------|
|-----0-------(0)-------------------------------|-------------------------2-------(2)-------------|
|-----------------------------------------------|-------------------------2-----0-(2)---(0)-------|
|-----------------------2-------(2)-0-------(0)-|-------------2-----4-(2)---(4)-------4-----2-(4)-|
|-----------------2-------(2)-4-------(4)-2-----|-0-(2)-4-(0)---(4)-------------------------------|
|-0-----(0)-4-------(4)-------------------------|-------------------------------------------------|


  D                                                 G           N.C.
  E     E     E     E     E     E     E     E       E     E     Q           H
  |     |     |     |     |     |     |     |       |
  /     /     /     /     /     /     /     /       /

  S  S  S  S  S  S  S  S  S  S  S  S  S  S  S  S    S  S  S  S  S  S  S  S  S  S  S  S  S  S  S  S
|-------------------------------------------------|-------------------------------------------------|
|-------------------------------------------------|-------------------------------------------------|
|-------------------------------------------------|-------------------------------------------------|
|---(2)-4-------(4)-5-------(5)-6-------(6)-------|-------------------------------------------------|
|-5-----5-(5)-7-(5)-7-(7)-8-(7)-8-(8)-9-(8)-9-(9)-|-5-(9)-6-(5)-7-(6)-8-(7)-9-(8)-8-(9)-7-(8)-6-(7)-|
|-------------------------------------------------|-------------------------------------------------|


  W
  S  S  S  S  S  S  S  S  S   S  S  S   S  S  S  S
|---------------------------------------------------|
|---------------------------------------------------|
|---------------------------------------------------|
|---------------------------------------------------|
|-5-(6)-6-(5)-7-(6)-8-(7)-9\-(8)---(9)\-------------|
|--------------------------------3------2-(3)---(2)-|


  E                                               A
  E   E     E     E     E     E     E     E       E     E     E     E     E     E     E     E
  |   |     |     |     |     |     |     |       |     |     |     |     |     |     |     |
  /   /     /     /     /     /     /     /       /     /     /     /     /     /     /     /

  S S S  S  S  S  S  S  S  S  S  S  S  S  S  S    S  S  S  S  S  S  S  S  S  S  S  S  S  S  S  S
|-----0-------(0)-------------------------------|-------------------------------------------------|
|-----0-------(0)-------------------------------|-------------------------------------------------|
|-----------------------------------------------|-------------------------2-----0-(2)---(0)-------|
|-----------------------------2-------(2)-------|-------------2-----4-(2)---(4)-------4-----2-(4)-|
|-----------------2-----2-(2)---(2)-4-----2-(4)-|-0-(2)-4-(0)---(4)-------------------------------|
|-0-----(0)-4-------(4)-------------------------|-------------------------------------------------|


  C
  E     E     E     E     E     E     E     E
  |     |     |     |     |     |     |     |
  /     /     /     /     /     /     /     /

  S  S  S  S  S  S  S  S  S  S  S  S  S  S  S  S
|-------------------------------------------------|
|-------------5-------(5)-------------------------|
|-------5-------(5)-5-------(5)-------5-------(5)-|
|-5-(2)---(5)-------------------5-------(5)-------|
|-------------------------7-------(7)-------7-----|
|-------------------------------------------------|


  D                                                E
  E     E     E     E     E     E     E   E         W
  |     |     |     |     |     |     |   |         |
  /     /     /     /     /     /     /   /         /

  S  S  S  S  S  S  S  S  S  S  S  S  S S S  S      S  S   S   S   S   S   S   S   S   S   S   S   S   S   S   S
|-----------------------------------------------||-16-----12-(16)-14-(12)----(14)-12---------(12)-----------------|
|-----------------------------------------0-----||----(0)-----------------15---------(15)-14------15-(14)-12-(15)-|
|-------------7-------(7)-----------------------||----------------------------------------------------------------|
|-------7-------(7)-7-------(7)-7-----9-7---(9)-||----------------------------------------------------------------|
|-9-(7)---(9)-------------9-------(9)-----------||----------------------------------------------------------------|
|-----------------------------------------------||----------------------------------------------------------------|
|
| Gtr III
| W                                                 S  S   S   S   S   S   S   S   S   S   S   S   S   S   S   S
|-----------------------------------------------||-12------9-(12)-10--(9)----(10)--9----------(9)-----------------|
|-----------------------------------------------||------------------------12---------(12)-10------12-(10)--9-(12)-|
|-----------------------------------------------||----------------------------------------------------------------|
|-----------------------------------------------||----------------------------------------------------------------|
|-----------------------------------------------||----------------------------------------------------------------|
|-----------------------------------------------||----------------------------------------------------------------|


                                                           E
  +H                              +Q.                      E
   |                               |                       |
   /                               /                       /

   S   S   S   S   S   S   S   S   S    S   S   S   S   S  E
|---------------------------------------------------------------*|
|-14-(12)----(14)-12---------(12)-------------------------------*|
|---------14---------(14)-13------14--(13)-11-(14)-13-(11)------*|
|---------------------------------------------------------------*|
|---------------------------------------------------------------*|
|---------------------------------------------------------------*|
|
|  S   S   S   S   S   S   S   S   S    S   S   S   S   S  E
|---------------------------------------------------------------*|
|-10--(9)----(10)--9----------(9)-------------------------------*|
|---------11---------(11)--9------11---(9)--8-(11)--9--(8)------*|
|---------------------------------------------------------------*|
|---------------------------------------------------------------*|
|---------------------------------------------------------------*|



Duration Legend
---------------
W - whole; H - half; Q - quarter; E - 8th; S - 16th; T - 32nd; X - 64th; a - acciaccatura
+ - note tied to previous; . - note dotted; .. - note double dotted
Uncapitalized letters represent notes that are staccato (1/2 duration)
Irregular groupings are notated above the duration line
Duration letters will always appear directly above the note/fret number it represents the
duration for.  Duration letters with no fret number below them represent rests.  Multi-
bar rests are notated in the form Wxn, where n is the number of bars to rest for.  Low
melody durations appear below the staff

Tablature Legend
----------------
 h   - hammer-on
 p   - pull-off
 b   - bend
 pb  - pre-bend
 r   - bend release (if no number after the r, then release immediately)
 /\  - slide into or out of (from/to "nowhere")
 s   - legato slide
 S   - shift slide
<n> - natural harmonic
[n]  - artificial harmonic
n(n) - tapped harmonic
 ~   - vibrato
 tr  - trill
 T   - tap
 TP  - trem. picking
 PM  - palm muting
\n/  - tremolo bar dip; n = amount to dip
 \n  - tremolo bar down
 n/  - tremolo bar up
/n\  - tremolo bar inverted dip
 =   - hold bend; also acts as connecting device for hammers/pulls
 <> - volume swell (louder/softer)
 x   - on rhythm slash represents muted slash
 o   - on rhythm slash represents single note slash

Misc Legend
-----------
 |  - bar
||  - double bar
||o - repeat start
o|| - repeat end
*|  - double bar (ending)
 :  - bar (freetime)
 $  - Segno
 &  - Coda
Tempo markers - <E/E./Q/Q./H/H.> = BPM(8/16=s8/s16), where s8 = swing 8ths, s16 = swing 16ths


*** GuitarCats.com ***