Tabs by Artist
0-9 A B C D E F G H I J K L M N O P Q R S T U V W X Y Z

SPARK IN THE DARK

As recorded by Alice Cooper

(From the 1989 Album TRASH)

Tablature (Tab) for Guitar
Transcribed by bastardme@hotmail.com
Words and Music by Desmaond Child and Alice Cooper

Gtr I (D G C F A D) - 'Untitled'

Gtr II (D G C F A D) - 'Untitled'

Gtr III (D G C F A D) - 'Untitled'


 Intro
  Q=138
                 C                 Ab
 4/4
  Gtr I
  H.       Q     E E E E E E E E   E E E E E E E E
|--------------|-----------------|------------------|
|--------------|-----------------|------------------|
|--------------|-----------------|------------------|
|--------------|-----3-3---------|-----0-0----------|
|---------16\--|-5-5-----5-5-0-0-|-1-1-----0-0-3-5--|
|--------------|-----------------|------------------|


  C                     Ab                   C
  +S  S E E E E E E E   E E E E  E E  E  E    +S  S E E E E E E E
|---------------------|--------------------|-----------------------|
|---------------------|--------------------|-----------------------|
|---------------------|--------------------|-----------------------|
|---------3-3---------|-----0-0------------|----------3-3----------|
|-(5)p4h5-----5-5-0-0-|-1-1------0-0--3--5-|--(5)p4h5-----5-5-0-0--|
|---------------------|--------------------|-----------------------|
|
|                       Gtr II
|                                              ~~~~~
|  W                    Q   E E  E E  E  E    +W
|---------------------|--------------------|-----------------------|
|---------------------|---------13---13S15-|-(15)------------------|
|---------------------|---------12---12S14-|-(14)------------------|
|---------------------|-------x-10-x-10S12-|-(12)------------------|
|---------------------|--------------------|-----------------------|
|---------------------|--------------------|-----------------------|


  Ab
  E  E     E E  E  E E  E
|-------------------------|
|-------------------------|
|-------------------------|
|----------0-0------------|
|-1--1----------0--0-3--5-|
|-------------------------|
|
| E  Q.         E  Q    E
|-------------------------|
|-------------------------|
|---12pb14-----12-10------|
|----------------------10-|
|-------------------------|
|-------------------------|


  C                           Ab
  +S  S  E     E  E E E E E     E  E E  E E E E S S
|---------------------------|------------------------||
|---------------------------|------------------------||
|---------------------------|------------------------||
|--------------3--3---------|--------0--0------------||
|-(5)p4h=5----------5-5-0-0-|---1--1------0-0-3-5S4--||
|---------------------------|------------------------||
|
|        \1/
|  E     E    +H.              +Q    H        Q
|---------------------------|--------x\--------------||
|---------------------------|--------x\--------------||
|-10------------------------|------------------------||
|-------10---(10)-----------|-(10)-------------------||
|---------------------------|------------------------||
|---------------------------|------------------------||


 Verse
  C                 Ab                C
  PM----------------------------|         PM----------|
  E E E E E E E E   E E E E E E E E   +E  E E E E E E E
|-----------------|-----------------|-------------------|
|-----------------|-----------------|-------------------|
|-----------------|-----------------|-------------------|
|-----3-3---------|-----0-0---------|-------3-3---------|
|-5-5-----5-5-0-0-|-1-1-----0-0-3-5-|-(5)-5-----5-5-0-0-|
|-----------------|-----------------|-------------------|


  Ab                C                     Ab
  PM----------|           PM----------------------------|
  E E E E E E E E   +S  S E E E E E E E   E   E E E E E E  E
|-----------------|---------------------|--------------------|
|-----------------|---------------------|--------------------|
|-----------------|---------------------|--------------------|
|-----0-0---------|---------3-3---------|-------0-0----------|
|-1-1-----0-0-3-5-|-(5)p4h5-----5-5-0-0-|-1---1-----0-0-3--5-|
|-----------------|---------------------|--------------------|
|
| Gtr II
| W                  W                    H..              E
|-----------------|---------------------|--------------------|
|-----------------|---------------------|-----------------10-|
|-----------------|---------------------|------------------7-|
|-----------------|---------------------|------------------7-|
|-----------------|---------------------|--------------------|
|-----------------|---------------------|--------------------|


  C                      Ab                C
       PM----------------------------|
   +E  E   E E E E E E   E E E E E E E E   +S  S E E E E E E E
|----------------------|-----------------|---------------------|
|----------------------|-----------------|---------------------|
|----------------------|-----------------|---------------------|
|----------3-3---------|-----0-0---------|---------3-3---------|
|--(5)-5-------5-5-0-0-|-1-1-----0-0-3-5-|-(5)p4h5-----5-5-0-0-|
|----------------------|-----------------|---------------------|
|
|  +E  H..               W                  W
|----------------------|-----------------|---------------------|
|-(10)-----------------|-----------------|---------------------|
|--(7)-----------------|-----------------|---------------------|
|--(7)-----------------|-----------------|---------------------|
|----------------------|-----------------|---------------------|
|----------------------|-----------------|---------------------|


  Ab                C                     Ab
  E E E E E E E E   +S  S E E E E E E E   E E E E E E E E
|-----------------|---------------------|-----------------|
|-----------------|---------------------|-----------------|
|-----------------|---------------------|-----------------|
|-----0-0---------|---------3-3---------|-----0-0---------|
|-1-1-----0-0-3-5-|-(5)p4h5-----5-5-0-0-|-1-1-----0-0-3-5-|
|-----------------|---------------------|-----------------|


  C                     Ab                C
  +S  S E E E E E E E   E E E E E E E E   +S  S E E E E E E E
|---------------------|-----------------|----------------------|
|---------------------|-----------------|----------------------|
|---------------------|-----------------|----------------------|
|---------3-3---------|-----0-0---------|---------3-3----------|
|-(5)-4-5-----5-5-0-0-|-1-1-----0-0-3-5-|-(5)p4h5-----5-5-0-0--|
|---------------------|-----------------|----------------------|


                    Pre-Chorus
  Ab                 Ab5               Bb5
  E E E E E E E E    E E E E E E E E   E E E E E E E E
|-----------------||-----------------|-----------------|
|-----------------||-----------------|-----------------|
|-----------------||-3-----3-----3---|-5-----5-----5---|
|-----0-0-----2---||-3-----3---3-3---|-5-----5---5-5---|
|-1-1-----3-3---1-||-1-1-1-1-1-1-1---|-3-3-3-3-3-3-3---|
|-----------------||-----------------|-----------------|


  C5                Bb5
  E E E E E E E E   Q          Q         E       E    Q
|-----------------|-----------------------------------------|
|-----------------|-----------------------------------------|
|-7-----7-----7---|-----------------------------------------|
|-7-----7---7-7---|-5----------5---------5-------5----5-----|
|-5-5-5-5-5-5-5---|-3----------3---------3-------3----3-----|
|-----------------|-----------------------------------------|
|
| Gtr II
| W                 E  E      +E   E     E      +E   +E   E
|-----------------|---12b13==(12)r12b13-12b14==(12)r(12)----|
|-----------------|--------------------------------------11-|
|-----------------|-----------------------------------------|
|-----------------|-----------------------------------------|
|-----------------|-----------------------------------------|
|-----------------|-----------------------------------------|


  Ab5
    E  E E E   E   E E E
|------------------------|
|------------------------|
|---3------3---------3-3-|
|---3------3-------3-3-3-|
|---1--1-1-1---1---1-1-1-|
|------------------------|
|
|  +H         +Q     Q
|------------------------|
|-(11)-------(11)\-------|
|------------------------|
|------------------------|
|------------------------|
|------------------------|


  Bb5                    F5                  G5
   E     E E E E E E E    Q.     E E E E E    E    E E E E E E E
|----------------------|-------------------|---------------------||
|----------------------|-------------------|---------------------||
|--5---------5-----5-5-|-------------------|---------------------||
|--5---------5---5-5-5-|--5------5-5-5-5-5-|--7----7-7-7-7-7-7-7-||
|--3-----3-3-3-3-3-3-3-|--5------5-5-5-5-5-|--7----7-7-7-7-7-7-7-||
|----------------------|--3------3-3-3-3-3-|--5----5-5-5-5-5-5-5-||
|
|  ~~~~~~~~~~~~~~~~~~~~~~~~~~~~~~~~~~~~~~~~~~~~~~~~
|  W                      W                   W
|----------------------|-------------------|---------------------||
|-11pb13---------------|-15----------------|-17------------------||
|----------------------|-17b19-------------|-19b21---------------||
|----------------------|-------------------|---------------------||
|----------------------|-------------------|---------------------||
|----------------------|-------------------|---------------------||


 Chorus
  C                 Ab5  Bb5             C
  Gtrs I, II
  E E E E E E E E   Q.    E  +E  E E E   E E E E E E E E
|-----------------|--------------------|-----------------|
|-----------------|------(8)-(8)-------|-----------------|
|-----------------|------(5)-(5)-------|-----------------|
|-----3-3---------|-3-----5--(5)-------|-----3-3---------|
|-5-5-----5-5-0-0-|-1-----3--(3)-3-0-3-|-5-5-----5-5-0-0-|
|-----------------|--------------------|-----------------|


  Ab5  Bb5             F5                   G5
                     Gtr I
  Q.    E  +E  E E E   E E E  E   Q   E E   E E E  E   E  E E E
|--------------------|--------------------|---------------------|
|------(8)-(8)-------|--------------------|---------------------|
|------(5)-(5)-------|--------------------|---------------------|
|-3-----5--(5)-------|--------------------|---------------------|
|-1-----3--(3)-3-0-3-|-5-5-5--5---5---5-5-|-7-7-7--7---7--7-7-7-|
|--------------------|-3-3-3--3---3---3-3-|-5-5-5--5---5--5-5-5-|
|
|                    Gtr II
|                             ~~~~~~~              ~~~~~~~
| W                    E E E  E  +Q   E E   E E E  E  +Q    E E
|--------------------|--------------------|---------------------|
|--------------------|--------------------|---------------------|
|--------------------|--------------------|---------------------|
|--------------------|-------[5]-(5)------|-------[7]-(7)-------|
|--------------------|--------------------|---------------------|
|--------------------|-3-3-3----------3-3-|-5-5-5-----------5-5-|


  Ab5             C5              C
  E Q  E Q  E E   E E E E Q  Q    S S E E E E E E E
|---------------|---------------|-------------------|
|---------------|---------------|-------------------|
|---------------|---------------|-------------------|
|-3-3--3-3--3-3-|-5-5-5-5-5--5--|-------3-3---------|
|-1-1--1-1--1-1-|-3-3-3-3-3--3--|-5p4h5-----5-5-0-0-|
|---------------|---------------|-------------------|


  Ab                C                     Ab
  E E E E E E E E   +S  S E E E E E E E   E E E E E E E E
|-----------------|---------------------|-----------------||
|-----------------|---------------------|-----------------||
|-----------------|---------------------|-----------------||
|-----0-0---------|---------3-3---------|-----0-0---------||
|-1-1-----0-0-3-5-|-(5)p4h5-----5-5-0-0-|-1-1-----0-0-3-5-||
|-----------------|---------------------|-----------------||


 Verse
  C                    Ab                  C
  PM---------------------------------|          PM------------|
  E  E E E  E E  E E    E E E  E E E E E   +E   E E E  E E  E E
|--------------------|-------------------|----------------------|
|--------------------|-------------------|----------------------|
|--------------------|-------------------|----------------------|
|------3-3-----------|------0--0---------|--------3-3-----------|
|-5--5------5-5--0-0-|--1-1------0-0-3-5-|-(5)--5------5-5--0-0-|
|--------------------|-------------------|----------------------|
|
| Gtr II
| E  E Q    E Q.        E Q    E H          E   E Q    E Q.
|---10-----10--------|-10-----10---------|-----10-----10--------|
|---10-----10--------|-10-----10---------|-----10-----10--------|
|--------------------|-------------------|----------------------|
|--------------------|-------------------|----------------------|
|--------------------|-------------------|----------------------|
|--------------------|-------------------|----------------------|


  Ab                  C                        Ab
   PM-----------|            PM--------------------------------|
   E E E  E E E E E   +S  S  E E E  E E  E E    E E E  E E E E E
|-------------------|------------------------|-------------------|
|-------------------|------------------------|-------------------|
|-------------------|------------------------|-------------------|
|------0--0---------|----------3-3-----------|------0--0---------|
|--1-1------0-0-3-5-|-(5)p4--5------5-5--0-0-|--1-1------0-0-3-5-|
|-------------------|------------------------|-------------------|
|
|  E Q    E H          E     E Q    E Q.        E Q    E H
|-10-----10---------|-------10-----10--------|-10-----10---------|
|-10-----10---------|-------10-----10--------|-10-----10---------|
|-------------------|------------------------|-------------------|
|-------------------|------------------------|-------------------|
|-------------------|------------------------|-------------------|
|-------------------|------------------------|-------------------|


  C                      Ab                  C
       PM--------------------------------|
  +E   E E E  E E  E E    E E E  E E E E E   +S  S E E  E E E E E
|----------------------|-------------------|----------------------|
|----------------------|-------------------|----------------------|
|----------------------|-------------------|----------------------|
|--------3-3-----------|------0--0---------|---------3--3---------|
|-(5)--5------5-5--0-0-|--1-1------0-0-3-5-|-(5)p4h5------5-5-0-0-|
|----------------------|-------------------|----------------------|
|
|  E   E Q    E Q.        E Q    E H          E    Q    E H
|-----10-----10--------|-10-----10---------|-10--------10---------|
|-----10-----10--------|-10-----10---------|-10--------10---------|
|----------------------|-------------------|----------------------|
|----------------------|-------------------|----------------------|
|----------------------|-------------------|----------------------|
|----------------------|-------------------|----------------------|


  Ab                C                     Ab
  Gtrs I, II
  E E E E E E E E   +S  S E E E E E E E   E E E E E E E E
|-----------------|---------------------|-----------------|
|-----------------|---------------------|-----------------|
|-----------------|---------------------|-----------------|
|-----0-0---------|---------3-3---------|-----0-0---------|
|-1-1-----0-0-3-5-|-(5)p4h5-----5-5-0-0-|-1-1-----0-0-3-5-|
|-----------------|---------------------|-----------------|


  C                     Ab                C
  +S  S E E E E E E E   E E E E E E E E   +S  S E E E E E E E
|---------------------|-----------------|----------------------|
|---------------------|-----------------|----------------------|
|---------------------|-----------------|----------------------|
|---------3-3---------|-----0-0---------|---------3-3----------|
|-(5)p4h5-----5-5-0-0-|-1-1-----0-0-3-5-|-(5)p4h5-----5-5-0-0--|
|---------------------|-----------------|----------------------|


                    Pre-Chorus
                     $
  Ab                 Ab5                Bb5
                  Gtr I
  E E E E E E E E     E E E E E E E E     E  E E E E E E E
|-----------------||------------------|--------------------|
|-----------------||------------------|--------------------|
|-----------------||--3-----3-----3---|---5------5-----5---|
|-----0-0-----2---||--3-----3---3-3---|---5------5---5-5---|
|-1-1-----3-3---1-||--1-1-1-1-1-1-1---|---3--3-3-3-3-3-3---|
|-----------------||------------------|--------------------|
|
|                 Gtr II
| W                   W                  +W
|-----------------||-22---------------|-(22)---------------|
|-----------------||------------------|--------------------|
|-----------------||------------------|--------------------|
|-----------------||------------------|--------------------|
|-----------------||------------------|--------------------|
|-----------------||------------------|--------------------|


  C5                Bb5
  E E E E E E E E   Q          Q         E       E    Q
|-----------------|-----------------------------------------|
|-----------------|-----------------------------------------|
|-7-----7-----7---|-----------------------------------------|
|-7-----7---7-7---|-5----------5---------5-------5----5-----|
|-5-5-5-5-5-5-5---|-3----------3---------3-------3----3-----|
|-----------------|-----------------------------------------|
|
| W                 E  E      +E   E     E      +E   +E   E
|-----------------|---12b13==(12)r12b13-12b14==(12)r(12)----|
|-----------------|--------------------------------------11-|
|-----------------|-----------------------------------------|
|-----------------|-----------------------------------------|
|-----------------|-----------------------------------------|
|-----------------|-----------------------------------------|


  Ab5
    E  E E E   E   E E E
|------------------------|
|------------------------|
|---3------3---------3-3-|
|---3------3-------3-3-3-|
|---1--1-1-1---1---1-1-1-|
|------------------------|
|
|  +H         +Q     Q
|------------------------|
|-(11)-------(11)\-------|
|------------------------|
|------------------------|
|------------------------|
|------------------------|


  Bb5
   E     E E  E      E      E     E      E
|-------------------------------------------|
|-------------------------------------------|
|--5----------5-------------------5------5--|
|--5----------5-------------5-----5------5--|
|--3-----3-3--3------3------3-----3------3--|
|-------------------------------------------|
|
|  ~~~~~~
|  Q.         E      E      E     E     +E
|------------11pb12-11pb12------------------|
|-11pb13-------------------11b13r11b13-(11)-|
|-------------------------------------------|
|-------------------------------------------|
|-------------------------------------------|
|-------------------------------------------|


             To Coda
  F5                  G5
   Q.     E E E E E    E    E E E E E E E
|-------------------|---------------------||
|-------------------|---------------------||
|-------------------|---------------------||
|--5------5-5-5-5-5-|--7----7-7-7-7-7-7-7-||
|--5------5-5-5-5-5-|--7----7-7-7-7-7-7-7-||
|--3------3-3-3-3-3-|--5----5-5-5-5-5-5-5-||
|
|  ~~~~~~~~~~~~~~~~~~~~~~~~~
|  W                   W
|-------------------|---------------------||
|-15----------------|-17------------------||
|-17b19-------------|-19b21---------------||
|-------------------|---------------------||
|-------------------|---------------------||
|-------------------|---------------------||


 Chorus
  C                 Ab5         Bb5                C
  E E E E E E E E    Q.          E     +E  E E E   E   E E E E E E  E
|-----------------|------------------------------|------------------------|
|-----------------|-------------(8)----(8)-------|------------------------|
|-----------------|-------------(5)----(5)-------|------------------------|
|-----3-3---------|--3-----------5-----(5)-------|-------3-3--------------|
|-5-5-----5-5-0-0-|--1-----------3-----(3)-3-0-3-|-5---5-----5-5-0--0-----|
|-----------------|------------------------------|------------------------|
|
| W                  E     +Q    E     +H          H..              E
|-----------------|------------------------------|------------------------|
|-----------------|-11----(11)--13----(13)-------|-----------------20b22==|
|-----------------|-13b15-(13)--15b17-(15)-------|------------------------|
|-----------------|------------------------------|------------------------|
|-----------------|------------------------------|------------------------|
|-----------------|------------------------------|------------------------|


  Ab5           Bb5              F5                   G5
    Q.           E   +E  E E E   E E E  E   Q   E E   E E E  E   E  E E E
|------------------------------|--------------------|---------------------|
|---------------(8)--(8)-------|--------------------|---------------------|
|---------------(5)--(5)-------|--------------------|---------------------|
|---3------------5---(5)-------|--------------------|---------------------|
|---1------------3---(3)-3-0-3-|-5-5-5--5---5---5-5-|-7-7-7--7---7--7-7-7-|
|------------------------------|-3-3-3--3---3---3-3-|-5-5-5--5---5--5-5-5-|
|
|                                       ~~~~~~~              ~~~~~~~
|  +E   E  E     E   +H          E E E  E  +Q   E E   E E E  E  +Q    E E
|------------------------------|--------------------|---------------------|
|-(20)-20r20b21-20\-(20)-------|--------------------|---------------------|
|------------------------------|--------------------|---------------------|
|------------------------------|-------[5]-(5)------|-------[7]-(7)-------|
|------------------------------|--------------------|---------------------|
|------------------------------|-3-3-3----------3-3-|-5-5-5-----------5-5-|


  Ab5                  Bb5                 C
  E Q    E   Q   E E   E E E E  Q     Q      S  S E E E E E   E   E
|--------------------|-------------------|--------------------------|
|--------------------|-------------------|--------------------------|
|--------------------|-------------------|--------------------------|
|-3-3----3---3---3-3-|-5-5-5-5--5-----5--|----------3-3-------------|
|-1-1----1---1---1-1-|-3-3-3-3--3-----3--|---5p=4h5-----5-5---0---0-|
|--------------------|-------------------|--------------------------|
|
|                                            ~~~~
| E E E  E  +Q   Q     H        H           +H.              +E   E
|--------------------|-------------------|-----------------------12-|
|--------------------|---------13b15-----|-(13)-------------(13)----|
|--------------------|-------------------|--------------------------|
|-------[8]-(8)------|-------------------|--------------------------|
|--------------------|-------------------|--------------------------|
|-6-6-6--------------|-------------------|--------------------------|


  Ab                       C
   E  E  E  E   E  E E E   +S  S  E      E        E   E     E    E    E
|------------------------|----------------------------------------------|
|------------------------|----------------------------------------------|
|------------------------|----------------------------------------------|
|--------0--0------------|---------------3--------3---------------------|
|--1--1---------0--0-3-5-|-(5)p4h=5-------------------5-----5----0----0-|
|------------------------|----------------------------------------------|
|
|               ~~~~
|                                                     |------3------|
|  E  E  E  E  +H           E     E     +E       +E   Q        Q    Q
|-12---------------------|------------------------------------12---13---|
|----13------------------|-------13b15r(13)b14==(13)-13pb14-------------|
|-------12-10-(10)-------|----------------------------------------------|
|------------------------|----------------------------------------------|
|------------------------|----------------------------------------------|
|------------------------|----------------------------------------------|


  Ab                                  C
   E   E   E       E    E  E   E  E    +S  S E E E E E E  E
|-----------------------------------|--------------------------|
|-----------------------------------|--------------------------|
|-----------------------------------|--------------------------|
|----------0-------0----------------|----------3-3-------------|
|--1---1----------------0--0---3--5-|--(5)p4h5-----5-5-0--0----|
|-----------------------------------|--------------------------|
|
|  E   E   E      +E   +Q     +Q       +H..               E
|-15-(13)-15b17==(15)-(15)---(15)r==|=(15)---------------15b17-|
|-----------------------------------|--------------------------|
|-----------------------------------|--------------------------|
|-----------------------------------|--------------------------|
|-----------------------------------|--------------------------|
|-----------------------------------|--------------------------|


  Ab                             C
   PM---------------------|           PM----------------
   E  E  E  E     E     E E  E    +E  E E E E E   E  E
|------------------------------|-----------------------|
|------------------------------|-----------------------|
|------------------------------|-----------------------|
|--------0--0------------------|--------3-3------------|
|--1--1-----------0-----0-3--5-|--(5)-5-----5-5---0--0-|
|------------------------------|-----------------------|
|
|  E  E  E  S  S  S  S  Q    E    +H        E E   E  E
|-15-15-13-12----12------------|--------------x/-------|
|-------------13----13---------|-----------------11-13-|
|----------------------12---14-|-(14)S======5----------|
|------------------------------|-----------------------|
|------------------------------|-----------------------|
|------------------------------|-----------------------|


                                D.S. al Coda
  Ab
 ----------------------------------|
   E  E     E     E     E     E     E     E
|----------------------------------------------||
|----------------------------------------------||
|----------------------------------------------||
|-----------0-----0-----------------2----------||
|--1--1-----------------3-----3-----------1----||
|----------------------------------------------||
|
|  E  S  S  S  S  S  S  S  S  S  S  S  S  S  S
|-------------------------------17----18-17-20-||
|----15-17-------17-20-17-18-20----20----------||
|-17-------17-19-------------------------------||
|----------------------------------------------||
|----------------------------------------------||
|----------------------------------------------||


  &
  G5              Bb5    D                 Bb5         C5
   E    E E E E E Q      E E E E E E E E    Q.          E     +H
|--------------------||------------------|---------------------------|
|--------------------||o-----------------|---------------------------|
|-----------------5--||------------------|--------------7-----(7)----|
|--7----7-7-7-7---5--||------5-5---------|--5-----------7-----(7)----|
|--7----7-7-7-7---3--||o-7-7-----7-7-----|--3-----------5-----(5)----|
|--5----5-5-5-5------||--------------7-7-|---------------------------|
|
|  W                     W                  E     +Q    E     +H
|--------------------||------------------|---------------------------|
|-17-----------------||o-----------------|-13----(13)--15----(15)----|
|-19b21--------------||------------------|-15b17-(15)--17b19-(17)----|
|--------------------||------------------|---------------------------|
|--------------------||o-----------------|---------------------------|
|--------------------||------------------|---------------------------|


  D                 Bb5         C5              G5
  E E E E E E E E    Q.          E     +H       E  E E  E   E  E E E
|-----------------|---------------------------|------------------------|
|-----------------|---------------------------|------------------------|
|-----------------|--------------7-----(7)----|------------------------|
|-----5-5---------|--5-----------7-----(7)----|-7--7-7--7---7--7-7-7---|
|-7-7-----7-7-----|--3-----------5-----(5)----|-7--7-7--7---7--7-7-7---|
|-------------7-7-|---------------------------|-5--5-5--5---5--5-5-5---|
|
|                                                       ~~~~~~~
| W                  E     +Q    E     +H       Q.      E  +Q.     S S
|-----------------|-15----(15)--17----(17)----|------------------------|
|-----------------|-18b20-(18)--20b22-(20)----|------------------------|
|-----------------|---------------------------|------------------------|
|-----------------|---------------------------|--------[7]-(7)---------|
|-----------------|---------------------------|------------------------|
|-----------------|---------------------------|-5------------------3h5-|


  A5                     Bb5                      C5
  E  E E  E   E  E E E   E  E E   E    E  E E E   E E E E E E E E
|----------------------|------------------------|------------------||
|----------------------|------------------------|-----------------o||
|-4--4-4--4---4--4-4-4-|-5--5-5---5----5--5-5-5-|-7-7-7-7-7-7-7-7--||
|-4--4-4--4---4--4-4-4-|-5--5-5---5----5--5-5-5-|-7-7-7-7-7-7-7-7--||
|-2--2-2--2---2--2-2-2-|-3--3-3---3----3--3-3-3-|-5-5-5-5-5-5-5-5-o||
|----------------------|------------------------|------------------||
|
|         ~~~~~~~                 ~~~~~~~~
| Q.      E  +Q.     E   Q.       E   +H          W
|----------------------|------------------------|------------------||
|----------------------|------------------------|-----------------o||
|----------------------|------------------------|------------------||
|--------[9]-(9)-------|--------[10]-(10)-------|------------------||
|----------------------|------------------------|-----------------o||
|-7------------------7-|-8----------------------|------------------||


    D                    Bb
    E  E E E  E E  E E    E E E  E E E E E
||---------------------|-------------------|
||o--------------------|-------------------|
||---------------------|-------------------|
||-------5-5-----------|-------------------|
||o-7--7------7-7------|------7--7-----5-7-|
||-----------------7-7-|--8-8------7-7-----|
|
|   E  E Q    E Q.        E Q    E H
||----12-----12--------|-12-----12---------|
||o---12-----12--------|-12-----12---------|
||---------------------|-------------------|
||---------------------|-------------------|
||o--------------------|-------------------|
||---------------------|-------------------|


  D                        Bb
  +S  S  E E E  E E  E E    E E E  E E E E E  3x
|------------------------|--------------------||
|------------------------|-------------------o||
|------------------------|--------------------||
|----------5-5-----------|--------------------||
|-(7)p6h=7------7-7------|------7--7-----5-7-o||
|--------------------7-7-|--8-8------7-7------||
|
|  E     E Q    E Q.        E Q    E H        3x
|-------12-----12--------|-12-----12----------||
|-------12-----12--------|-12-----12---------o||
|------------------------|--------------------||
|------------------------|--------------------||
|------------------------|-------------------o||
|------------------------|--------------------||


  D                       Bb
  E    E E E  E E  E  E    E  E  E  E     E  E   E   E
|-----------------------|------------------------------|
|-----------------------|------------------------------|
|-----------------------|------------------------------|
|--------5-5------------|------------------------------|
|-7----7------7-7-------|--------7--7------------5---7-|
|------------------7--7-|--8--8-----------7--7---------|
|
| E    E Q    E Q.         E  Q     E     H
|-----12-----12---------|-12-------12------------------|
|-----12-----12---------|-12-------12------------------|
|-----------------------|------------------------------|
|-----------------------|------------------------------|
|-----------------------|------------------------------|
|-----------------------|------------------------------|
|
| Gtr III
|                                   \1/          \1/
| H..                 E    E  E  E  E    +Q     +Q
|-----------------------|------------------------------|
|--------------------12-|-13-------12---(12)---(12)----|
|-----------------------|----12-14---------------------|
|-----------------------|------------------------------|
|-----------------------|------------------------------|
|-----------------------|------------------------------|


  D                         Bb
   +S  S  E E E  E E  E E     E   E E   E    E   E E E
|-------------------------|----------------------------*|
|-------------------------|----------------------------*|
|-------------------------|----------------------------*|
|-----------5-5-----------|----------------------------*|
|--(7)p6h=7------7-7------|---------7---7----------5-7-*|
|---------------------7-7-|---8---8----------7---7-----*|
|
|   E     E Q    E Q.         E   Q     E    H
|--------12-----12--------|--12--------12--------------*|
|--------12-----12--------|--12--------12--------------*|
|-------------------------|----------------------------*|
|-------------------------|----------------------------*|
|-------------------------|----------------------------*|
|-------------------------|----------------------------*|
|
|                             \1________|
|  +W                        +Q.       +E    H
|-------------------------|----------------------------*|
|-(12)--------------------|-(12)------(12)-------------*|
|-------------------------|----------------<12>\-------*|
|-------------------------|----------------------------*|
|-------------------------|----------------------------*|
|-------------------------|----------------------------*|



Duration Legend
---------------
W - whole; H - half; Q - quarter; E - 8th; S - 16th; T - 32nd; X - 64th; a - acciaccatura
+ - note tied to previous; . - note dotted; .. - note double dotted
Uncapitalized letters represent notes that are staccato (1/2 duration)
Irregular groupings are notated above the duration line
Duration letters will always appear directly above the note/fret number it represents the
duration for.  Duration letters with no fret number below them represent rests.  Multi-
bar rests are notated in the form Wxn, where n is the number of bars to rest for.  Low
melody durations appear below the staff

Tablature Legend
----------------
 h   - hammer-on
 p   - pull-off
 b   - bend
 pb  - pre-bend
 r   - bend release (if no number after the r, then release immediately)
 /\  - slide into or out of (from/to "nowhere")
 s   - legato slide
 S   - shift slide
<n> - natural harmonic
[n]  - artificial harmonic
n(n) - tapped harmonic
 ~   - vibrato
 tr  - trill
 T   - tap
 TP  - trem. picking
 PM  - palm muting
\n/  - tremolo bar dip; n = amount to dip
 \n  - tremolo bar down
 n/  - tremolo bar up
/n\  - tremolo bar inverted dip
 =   - hold bend; also acts as connecting device for hammers/pulls
 <> - volume swell (louder/softer)
 x   - on rhythm slash represents muted slash
 o   - on rhythm slash represents single note slash

Misc Legend
-----------
 |  - bar
||  - double bar
||o - repeat start
o|| - repeat end
*|  - double bar (ending)
 :  - bar (freetime)
 $  - Segno
 &  - Coda
Tempo markers - <E/E./Q/Q./H/H.> = BPM(8/16=s8/s16), where s8 = swing 8ths, s16 = swing 16ths


*** GuitarCats.com ***