Tabs by Artist
0-9 A B C D E F G H I J K L M N O P Q R S T U V W X Y Z

ZAKAZANY OWOC

As recorded by Antkowiak Krzyszytof

Tablature (Tab) for Guitar


Gtr I (E A D G B E) - 'Gtr. 1'


  Q=120
 4/4
  Gtr I
  E E E E Q  E E   E E E E Q  E E   E E E E Q  E E   E E E E Q  Q
|-------0--------|-------0----0-0-|-0--------------|----------------|
|---0-2----------|---0-2----------|---3-2-3----2-3-|-2-0---0--------|
|-1----------1---|-1--------------|----------------|-----2----------|
|--------------4-|----------------|-0--------------|----------------|
|---------2------|---------2------|----------------|-0----------2---|
|-0--------------|-0--------------|---------2------|---------0------|


  E E E E Q  E E   E E E E Q  E E   E E E E Q  E E   E E E E Q  E E
|-------0--------|-------0----0-0-|-0--------------|----------------|
|---0-2----------|---0-2----------|---3-2-3----2-3-|-2-0---0--------|
|-1----------1---|-1--------------|----------------|-----2----------|
|--------------4-|----------------|-0--------------|----------------|
|---------2------|---------2------|----------------|-0----------2---|
|-0--------------|-0--------------|---------2------|---------0----4-|


  Q  E E E E E E   E E E E E E E E   Q  E E E E E E   E E E E E E E E
|------0---------|-4-2-2-0-0-------|------0---------|-----------------|
|----2---4-2-2-0-|-----------4-4-2-|----2---4-2-2-0-|-2-0-0---2-0-----|
|----------------|-----------------|----------------|-------1---------|
|----------------|-2---1-----------|----------------|-2---------------|
|-0------2-------|---------4---2---|-0------2-------|-------------2---|
|----------------|-----------------|----------------|---------0-----4-|


  Q  E E E E E E   E E E E E E E E   Q  E E E E E E   Q  E E Q  Q
|------0-4-------|-4-2-2-0-0-------|--------2-2-2---|-----------0--|
|----2-----2-2-0-|-----------4-4-2-|----2-2-------4-|--------------|
|----------------|-----------------|----------------|------2-------|
|----------------|-2---1-----------|----------------|----4---------|
|-0------2-------|---------4---2---|-0--------------|-2------2-----|
|----------------|-----------------|----------------|--------------|


  Q  E E E E E E   E E E E Q  Q    Q  E E E E E E   Q  E E E E E E
|-0--------------|---------------|-0----0-------0-|------0-------0-|
|------0-------0-|-------0----0--|----1-------1---|----1-------1---|
|----1-------1---|-----2---------|----------0-----|----------2-----|
|----------2-----|---2--------1--|--------2-------|--------4-------|
|--------2-------|-0-------2-----|-3--------------|-0--------------|
|-0--------------|---------------|----------------|----------------|


  Q  E E E E E E   H     H
|------0-------0-|------12----*|
|----0-------0---|-------9----*|
|----------1-----|-------9----*|
|--------2-------|-------9----*|
|----------------|------------*|
|-0--------------|-0----------*|



Duration Legend
---------------
W - whole; H - half; Q - quarter; E - 8th; S - 16th; T - 32nd; X - 64th; a - acciaccatura
+ - note tied to previous; . - note dotted; .. - note double dotted
Uncapitalized letters represent notes that are staccato (1/2 duration)
Irregular groupings are notated above the duration line
Duration letters will always appear directly above the note/fret number it represents the
duration for.  Duration letters with no fret number below them represent rests.  Multi-
bar rests are notated in the form Wxn, where n is the number of bars to rest for.  Low
melody durations appear below the staff

Tablature Legend
----------------
 h   - hammer-on
 p   - pull-off
 b   - bend
 pb  - pre-bend
 r   - bend release (if no number after the r, then release immediately)
 /\  - slide into or out of (from/to "nowhere")
 s   - legato slide
 S   - shift slide
<n> - natural harmonic
[n]  - artificial harmonic
n(n) - tapped harmonic
 ~   - vibrato
 tr  - trill
 T   - tap
 TP  - trem. picking
 PM