Tabs by Artist
0-9 A B C D E F G H I J K L M N O P Q R S T U V W X Y Z

ROLLER

As recorded by April Wine

(From the 1978 Album FIRST GLANCE)

Tablature (Tab) for Guitar
Transcribed by S. Flavel
Words and Music by Myles Goodwyn


A5V

5 7 7 x x x
Bb5VI

6 8 8 x x x
B5VII

7 9 9 x x x
C#5IV

x 4 6 6 x x
D5V

x 5 7 7 x x
Eb5VI

x 6 8 8 x x
E5open

0 2 2 x x x
E5VII

x 7 9 9 x x
F5VIII

x 8 10 10 x x
F#5II

2 4 4 x x x
F#5IX

x 9 11 11 x x
G5III

3 5 5 x x x
G5X

x 10 12 12 x x
G#5IV

4 6 6 x x x



Gtr I (E A D G B E) - 'Rhythm Gtr'

Gtr II (E A D G B E) - 'Gtr 2'

Gtr III (E A D G B E) - 'Gtr 3'


 Intro
  Q=207
                   E5open
 12/8
  Gtr I
  W.               Q  Q     W                    W.
                   |
                   /

  Gtr II
                        |--3--|        |-3-|           |-3-|
  W         H      Q  E E E   E E Q  E E E E E   Q   E E E E E E  E E E  E E
|----------------|-----------------------------|-----------------------------|
|----------------|-----------------------------|-----------------------------|
|----------------|-----------------------------|--------------------2--------|
|----------------|----------------2--2---------|-2---2---------0-/4--------2-|
|----------------|------4p2p==0--------4p2p0---|-------4p2p0----------0-/4---|
|----------------|-0--0---------0------------0-|-------------4---------------|


  W.
        |-3-|        |-3-|
  Q   E E E E E Q  E E E E E
|----------------------------|
|----------------------------|
|----------------------------|
|---------------2--2---------|
|-------4p2p0--------4p2p0---|
|-0---0-------0------------0-|


                D5V  A5V    E
  H.            Q.   Q.     W.
                |    |
                /    /

        |-3-|                     |-3-|        |-3-|
  Q   E E E E E Q.   Q.     Q   E E E E E Q  E E E E E
|-------------------------|----------------------------|
|---------------3---------|----------------------------|
|---------------2----2----|----------------------------|
|-2---2---------0----2----|---------------2--2---------|
|-------4p2p0--------0----|-------4p2p0--------4p2p0---|
|-------------0-----------|-0---0-------0------------0-|


  W.                            W.
                                              ~~~~~~~~~
        |-3-|                         |-3-|
  Q   E E E E E E  E E E  E E   Q   E E E E E H.
|-----------------------------|-----------------------|
|-----------------------------|-----------------------|
|--------------------2--------|-----------------------|
|-2---2---------0-/4--------2-|---------------2-------|
|-------4p2p0----------0-/4---|-------4p2p0-----------|
|-------------4---------------|-0---0-------0---------|


                      E5VII
   H.       Q.    Q   E   +Q   E Q  E Q  E Q  E
                      |    |   |    |    |    |
                      /    /   /    /    /    /

 ~~~~~
  +H.      +Q.   +Q   E   +Q   E Q  E Q  E Q  E
|-----------------------|-----------------------|
|-----------------------|-----------------------|
|---------------------9-|-(9)--9----9----9----9-|
|-(2)------(2)---(2)--9-|-(9)--9----9----9----9-|
|---------------------7-|-(7)--7----7----7----7-|
|-----------------------|-----------------------|


  +Q   E Q  E Q  E Q  E   +Q   E Q  E Q  E Q  E   +Q   E Q  E Q  E Q  E
   |   |    |    |    |    |   |    |    |    |    |   |    |    |    |
   /   /    /    /    /    /   /    /    /    /    /   /    /    /    /

  +Q   E Q  E Q  E Q  E   +Q   E Q  E Q  E Q  E   +Q   E Q  E Q  E Q  E
|-----------------------|-----------------------|-----------------------||
|-----------------------|-----------------------|-----------------------||
|-(9)--9----9----9----9-|-(9)--9----9----9----9-|-(9)--9----9----9----9-||
|-(9)--9----9----9----9-|-(9)--9----9----9----9-|-(9)--9----9----9----9-||
|-(7)--7----7----7----7-|-(7)--7----7----7----7-|-(7)--7----7----7----7-||
|-----------------------|-----------------------|-----------------------||


 Verse 1
        E5open
  +Q    e e E e e E e e E e
   |    | |   | |   | |   |
   /    / /   / /   / /   /

              PM|   PM|   PM-
  +Q    Q   E E E E E E E E
|---------------------------|
|---------------------------|
|-(9)\----------------------|
|-(9)\----------------------|
|-(7)\--------2-2---2-2---2-|
|-------------0-0---0-0---0-|


  e E e e E e e E e e E e     e E e e E e e E e e E e
  |   | |   | |   | |   |     |   | |   | |   | |   |
  /   / /   / /   / /   /     /   / /   / /   / /   /

 -|   PM|   PM|   PM|   PM----|   PM|   PM------|   PM
  E E E E E E E E E E E E     E E E E E E E E E E E E
|-------------------------||--------------------------|
|-------------------------||o-------------------------|
|-------------------------||--------------------------|
|-------------------------||--------------------------|
|-2---2-2---2-2---2-2---2-||o-2---2-2---2-2---2-2---2-|
|-0---0-0---0-0---0-0---0-||--0---0-0---0-0---0-0---0-|


  e E e e E e e E e e E e
  |   | |   | |   | |   |
  /   / /   / /   / /   /

  PM  PM|   PM-----------------
  E E E E E E E E E E E E  3x
|--------------------------||-|
|-------------------------o||-|
|--------------------------||-|
|--------------------------||-|
|-2---2-2---2-2---2-2---2-o||-|
|-0---0-0---0-0---0-0---0--||-|


   Chorus
    e E e e E e e E e e E e   e E e e E e e E e e E e
    |   | |   | |   | |   |   |   | |   | |   | |   |
    /   / /   / /   / /   /   /   / /   / /   / /   /

 ---------------------------------------------------|
    E E E E E E E E E E E E   E E E E E E E E E E E E   3x
||--------------------------|---------------------------||
||o-------------------------|--------------------------o||
||--------------------------|---------------------------||
||--------------------------|---------------------------||
||o-2---2-2---2-2---2-2---2-|-2---2-2---2-2---2-2---2--o||
||--0---0-0---0-0---0-0---0-|-0---0-0---0-0---0-0---0---||


                            D5V         A5V
  e E e e E e e E e e E e   E E E E E E E E E E E E
  |   | |   | |   | |   |   | | | | | | | | | | | |
  /   / /   / /   / /   /   / / / / / / / / / / / /

  PM--------------------|
  E E E E E E E E E E E E   E E E E E E E E E E E E
|-------------------------|-------------------------|
|-------------------------|-3-3-3-3-3-3-------------|
|-------------------------|-2-2-2-2-2-2-2-2-2-2-2-2-|
|-------------------------|-0-0-0-0-0-0-2-2-2-2-2-2-|
|-2---2-2---2-2---2-2---2-|-------------0-0-0-0-0-0-|
|-0---0-0---0-0---0-0---0-|-------------------------|


 Guitar Break
  E      E5VII
  Q.     Q  E Q   E Q  E   Q   E   Q  E Q   E Q      E
  |      |  |     | |  |       |   |  |     | |      |
  o      /  /     / /  /       /   /  /     / /      /

  Q.   a Q  E E E E Q  E   Q.    a Q  E E E E Q.
|------------------------|-----------------------------|
|------------------------|-----------------------------|
|------------------------|-----------------------------|
|------0h2--2-2p0---2--2-|-------0h2--2-2p0------------|
|------------------------|------------------2----------|
|-0---------------3------|-0------------------3b4.5----|


                                                   E5VII
  Q   E   Q  E Q   E Q  E   E E E Q   E Q     E Q  E
      |   |  |     | |  |   | | | |   |       | |  |
      /   /  /     / /  /   x x x /   /       / /  /

                                      ~~~~~~~~
  Q.    a Q  E E E E Q  E   E E E E E Q   +H       E
|-------------------------|--------------------------|
|-------------------------|--------------------------|
|-------------------------|------------------------9-|
|-------0h2--2-2p0---2--2-|-2p0h2-0h2-2---(2)------9-|
|-------------------------|------------------------7-|
|-0----------------3------|--------------------------|


 Verse 2
          E5open
  +Q    E e  E e e  E e e E e
   |      |    | |    | |   |
   /      /    / /    / /   /

  +Q.     Q.     H.
|------------------------------|
|------------------------------|
|-(9)\-------------------------|
|-(9)\-------------------------|
|-(7)\-------------------------|
|------------------------------|


  e  E e  e   E  e  e    E e e   E  e
  |    |  |      |  |      | |      |
  /    /  /      /  /      / /      /

  Q.      E   Q     H           +Q
|-------------------------------------|
|--------14--12-----------------------|
|-----------(12)---12b13-------(12)---|
|-------------------------------------|
|-------------------------------------|
|-------------------------------------|


  e  E e e E e e  E e e E e   e  E e e     E e e   E e e   E e
  |    | |   | |    | |   |   |    | |       | |     | |     |
  /    / /   / /    / /   /   /    / /       / /     / /     /

  H.           H.             Q.     Q.        Q.      Q.
|---------------------------|--------6b6.5-----6b7-----6b7-----|
|---------------------------|--------7b8-------7b8-----7b8-----|
|---------------------------|----------------------------------|
|---------------------------|----------------------------------|
|---------------------------|----------------------------------|
|---------------------------|----------------------------------|


  e  E e e E e e  E e e E e
  |    | |   | |    | |   |
  /    / /   / /    / /   /

  H.           H.
|---------------------------|
|---------------------------|
|---------------------------|
|---------------------------|
|---------------------------|
|---------------------------|


  e E   e   e    E  e    e E e   e  E e   e  Q  Q.   H.
  |     |   |       |    |   |   |    |   |
  /     /   /       /    /   /   /    /   /

                                 ~~~~
  Q     E   Q       H           +Q.       H.         H.
|---------------------------------------|------------------|
|-----(12)-15b17---15b17-------(15)-----|------------------|
|---------------------------------------|------------------|
|---------------------------------------|------------------|
|---------------------------------------|------------------|
|---------------------------------------|------------------|


                           Chorus
  D5V         A5V           E  E5VII                        D5V  A5V
  E E E E E E E E E E E E   Q  e Q  E Q  e Q  E   Q  e Q  e Q.   Q.
  | | | | | | | | | | | |   |  | |  |    | |  |   |  | |  | |    |
  / / / / / / / / / / / /   o  / /  /    / /  /   o  / /  / /    /

                               PM        PM          PM   PM
  E E E E E E E E E E E E   Q  E Q  E Q  E Q  E   Q  E Q  E Q.   Q.
|-------------------------|---------------------|---------------------|
|-3-3-3-3-3-3-------------|---------------------|---------------------|
|-2-2-2-2-2-2-2-2-2-2-2-2-|----9-9--9----9-9--9-|----9-9--9-7---------|
|-0-0-0-0-0-0-2-2-2-2-2-2-|----9-9--9----9-9--9-|----9-9--9-7----7----|
|-------------0-0-0-0-0-0-|----7-7--7----7-7--7-|----7-7--7-5----7----|
|-------------------------|-0-------------------|-0--------------5----|


     E5VII                        D5V  A5V       E5VII
  Q  e Q  E Q  e Q  E   Q  e Q  e Q.   Q.     Q  e Q  E Q  e Q  E
  |  | |  |    | |  |   |  | |  | |    |      |  | |  |    | |  |
  o  / /  /    / /  /   o  / /  / /    /      o  / /  /    / /  /

     PM        PM          PM   PM               PM        PM
  Q  E Q  E Q  E Q  E   Q  E Q  E Q.   Q.     Q  E Q  E Q  E Q  E
|---------------------|---------------------|---------------------|
|---------------------|---------------------|---------------------|
|----9-9--9----9-9--9-|----9-9--9-7---------|----9-9--9----9-9--9-|
|----9-9--9----9-9--9-|----9-9--9-7----7----|----9-9--9----9-9--9-|
|----7-7--7----7-7--7-|----7-7--7-5----7----|----7-7--7----7-7--7-|
|-0-------------------|-0--------------5----|-0-------------------|


            D5V  A5V       E5VII              D5V         A5V
  Q  E Q  E Q.   Q.     Q  E Q  E Q  E Q  E   E E E E E E E E E E E E
  |  | |  | |    |      |  | |  |    | |  |   | | | | | | | | | | | |
  o  / /  / /    /      o  / /  /    / /  /   / / / / / / / / / / / /

     PM   PM               PM        PM
  Q  E Q  E Q.   Q.     Q  E Q  E Q  E Q  E   E E E E E E E E E E E E
|---------------------|---------------------|-------------------------|
|---------------------|---------------------|-3-3-3-3-3-3-------------|
|----9-9--9-7---------|----9-9--9----9-9--9-|-2-2-2-2-2-2-2-2-2-2-2-2-|
|----9-9--9-7----7----|----9-9--9----9-9--9-|-0-0-0-0-0-0-2-2-2-2-2-2-|
|----7-7--7-5----7----|----7-7--7----7-7--7-|-------------0-0-0-0-0-0-|
|-0--------------5----|-0-------------------|-------------------------|


 Guitar Solo 1
  E
  Gtrs I, II
         |-3-|         |-3-|                |---3----|
   Q  E  E E E E Q  E  E E E  E    Q   E    E E      E E  E  E E  E     E E
|-------------------------------|-------------------------------------------|
|-------------------------------|-------------------------------------------|
|-------------------------------|------------------------------2------------|
|----------------2--2-----------|--2---2------------------0-/4------------2-|
|--------4p2p0---------4p2p0----|-----------4p2p=====0------------0----/4---|
|--0--0--------0--------------0-|----------------------4--------------------|
|
| Gtr III
|  Q  E  H.            Q      E    Q   Q         +E    Q.      E  Q.
|-12----12------------12--------|-12--15b17-----(15)-------------17b19r=====|
|----------------------------15-|-------------------------------------------|
|-------------------------------|-------------------------------------------|
|-------------------------------|-------------------------------------------|
|-------------------------------|-------------------------------------------|
|-------------------------------|-------------------------------------------|


            |--3---|               |-3--|
    Q    E  E E    E  E  Q     E   E  E E E
|--------------------------------------------|
|--------------------------------------------|
|--------------------------------------------|
|------------------------2-----2-------------|
|-----------4p2p===0---------------4p=2p0----|
|---0----0------------0-------------------0--|
|
|                              ~~~~~~~
|  +Q    E  E    E    E  E  E  E  +Q.
|-(17)--15-17---15------15-------------------|
|--------------------17-------15-(15)--------|
|--------------------------16----------------|
|--------------------------------------------|
|--------------------------------------------|
|--------------------------------------------|


            |-3--|                                   |--3---|             |--3---|
    Q   E   E  E E E E  E  E  E  E  E         Q   E  E    E E E  Q     E  E    E E   E
|-----------------------------------------|---------------------------------------------|
|-----------------------------------------|---------------------------------------------|
|--------------------------2--------------|---------------------------------------------|
|---2---2------------0-/4-----------2-----|----------------------2-----2----------------|
|-----------4p=2p0------------0-/4--------|----------4p===2p0-------------4p===2p0------|
|------------------4----------------------|---0---0-----------0----------------------0--|
|
|                                                                                    PM
|  +Q.     +Q.       Q     E  Q     E        +Q.     Q.          Q.       Q         +E
|-----------------------------------------|---------------------------------------------|
|-(15)----(15)------------12-15----15pb17r|=(15)----15----------15-------15--------(15)-|
|-----------------------------------------|---------14b16-------14b16----14b16-----(14)-|
|-----------------------------------------|---------------------------------------------|
|-----------------------------------------|---------------------------------------------|
|-----------------------------------------|---------------------------------------------|


            |---3---|
   Q     E  E     E E  E      E   E  E   E   E  E
|--------------------------------------------------|
|--------------------------------------------------|
|------------------------------------2-------------|
|--2-----2--------------------0--/4-------------2--|
|-----------4p====2p0--------------------0--/4-----|
|----------------------4---------------------------|
|
|                      ~~~~~~~
|  Q.       Q          Q         +Q     +Q      E
|--------------------------------------------------|
|-15-------15--------------------------------------|
|-14b16----14pb16r====12b12.5---(12)---(12)----12--|
|--------------------------------------------------|
|--------------------------------------------------|
|--------------------------------------------------|


   H.                          H.
               |--3---|                  |----3----|
   Q        E  E E    E  E     Q      E  E E       E  E
|-------------------------------------------------------|
|-------------------------------------------------------|
|-------------------------------------------------------|
|------------------------------2------2-----------------|
|--------------4p2p===0------------------4p2p======0----|
|--0--------0------------0----------------------------0-|
|
|  E     E  E  E    E    E     E   E  E  E    E       E
|----------12------12-------------12--------------------|
|-------12----15--------------12-----15-12-----------12-|
|-14b16-----------------14b16----------------14b16------|
|-------------------------------------------------------|
|-------------------------------------------------------|
|-------------------------------------------------------|


                                           Guitar Solo 2
  E         F#       G           G#         G#5IA5V               G#5IVA5V
                                            Gtr I
   H.                 H.                      E  E  E  E  E  E      E  E E  E     E  E
                                              |  |  |  |  |  |      |  | |  |     |  |
                                              /  /  /  /  /  /      /  / /  /     /  /

                                            Gtr II
                                                             ~~~~~~~~~~
   Q      E  E  E  E  E      E E   E  E E     E  E  E  E  E  E     +Q.      E     E  E
|-----------------------------------------|---------5-----------------------5-----------|
|-----------------------------------------|------5-----8--5--8b10--(8)------------8--5--|
|-----------------------------------------|--/6-----------------------------------------|
|--2------2--4--4--4--5------5-5---6--6-6-|---------------------------------------------|
|--2------2--4--4--4--5------5-5---6--6-6-|---------------------------------------------|
|--0------0--2--2--2--3------3-3---4--4-4-|---------------------------------------------|
|
|                     ~~~~~~~~~~~~~~~~                       ~~~~~~~~~~
|  E   E  E  E  E  E  Q.          +Q.         E  E  E  E  E  E     +Q.      Q        E
|-12--------------------------------------|---------------------------------------------|
|-----15-12-------------------------------|--------14-----------------------------------|
|-----------14-12----12b12.5-----(12)-----|-----14----16-14-16b18-(16)-----16pb18r==14--|
|-----------------14----------------------|-/14-----------------------------------------|
|-----------------------------------------|---------------------------------------------|
|-----------------------------------------|---------------------------------------------|


            F#5II      G5III   G#5IV
   E    E E  Q      E  Q    E  Q  E
   |    | |  |      |  |    |  |  |
   /    / /  /      /  /    /  /  /

                    ~~~~~~~~~~~
   Q.        Q      Q.     +Q.    E
|-----------------------------------|
|--8b10------8b10---8------(8)------|
|-----------------------------------|
|-----------------------------------|
|-----------------------------------|
|-----------------------------------|
|
|                   ~~~~~~~~~~~
|  Q.        Q      Q.     +Q.    E
|-----------------------------------|
|-----------------------------------|
|-16b18-----16b18--16-----(16)------|
|-----------------------------------|
|-----------------------------------|
|-----------------------------------|


  G#5IA5V               G#5IVA5V               G#5IV A5V G#5IV      A5V     Bb5VI
    E  E  E  E  E  E      E  E E  E     E  E    E    E E  Q      E  Q    E  Q  E
    |  |  |  |  |  |      |  | |  |     |  |    |    | |  |      |  |    |  |  |
    /  /  /  /  /  /      /  / /  /     /  /    /    / /  /      /  /    /  /  /

                   ~~~~~~~~~~                                    ~~~~~~~~~~~
    E  E  E  E  E  E     +Q.      E     E  E    Q.        Q      Q.     +Q.    E
|---------5-----------------------5----------|-----------------------------------|
|------5-----8--5--8b10--(8)------------8--5-|--8b10------8b10---8------(8)------|
|--/6----------------------------------------|-----------------------------------|
|--------------------------------------------|-----------------------------------|
|--------------------------------------------|-----------------------------------|
|--------------------------------------------|-----------------------------------|
|
|                  ~~~~~~~~~~                                    ~~~~~~~~~~~
|   E  E  E  E  E  E     +Q.      Q        E    Q.        Q      Q.     +Q.    E
|--------------------------------------------|-----------------------------------|
|--------14----------------------------------|-----------------------------------|
|-----14----16-14-16b18-(16)-----16pb18r==14-|-16b18-----16b18--16-----(16)------|
|-/14----------------------------------------|-----------------------------------|
|--------------------------------------------|-----------------------------------|
|--------------------------------------------|-----------------------------------|


  Bb5VB5VII             Bb5VIB5VII              Bb5VI B5VIG#5IV      A5V     Bb5VI
    E  E  E  E  E  E      E  E E  E      E  E    E    E E  Q      E  Q    E  Q  E
    |  |  |  |  |  |      |  | |  |      |  |    |    | |  |      |  |    |  |  |
    /  /  /  /  /  /      /  / /  /      /  /    /    / /  /      /  /    /  /  /

                   ~~~~~~~~~~                                     ~~~~~~~~~~~
    E  E  E  E  E  E     +Q.      E      E  E    Q.        Q      Q.     +Q.    E
|---------7-----------------------7-----------|-----------------------------------|
|------7----10--7-10b12-(10)------------10--7-|-10b12-----10b12--10-----(10)------|
|--/8-----------------------------------------|-----------------------------------|
|---------------------------------------------|-----------------------------------|
|---------------------------------------------|-----------------------------------|
|---------------------------------------------|-----------------------------------|
|
|                  ~~~~~~~~~~                                     ~~~~~~~~~~~
|   E  E  E  E  E  E     +Q.      Q         E    Q.        Q      Q.     +Q.    E
|---------------------------------------------|-----------------------------------|
|--------16-----------------------------------|-----------------------------------|
|-----16----18-16-18b20-(18)-----18pb20r===16-|-18b20-----18b20--18-----(18)------|
|-/16-----------------------------------------|-----------------------------------|
|---------------------------------------------|-----------------------------------|
|---------------------------------------------|-----------------------------------|


  Bb5VB5VII                Bb5VIB5VII
    E  E  E  E     E  E      E  E E  E      E  E
    |  |  |  |     |  |      |  | |  |      |  |
    /  /  /  /     /  /      /  / /  /      /  /

                      ~~~~~~~~~~
    E  E  E  E     E  E     +Q.      E      E  E
|---------7--------------------------7-----------|
|------7----10-----7-10b12-(10)------------10--7-|
|--/8--------------------------------------------|
|------------------------------------------------|
|------------------------------------------------|
|------------------------------------------------|
|
|                     ~~~~~~~~~~
|   E  E  E  Q        E     +Q.      Q         E
|------------------------------------------------|
|--------16--------------------------------------|
|-----16----16pb18r==18b20-(18)-----18pb20r===16-|
|-/16--------------------------------------------|
|------------------------------------------------|
|------------------------------------------------|


            G5X       F#5IX     F5VIII
   E    E E  E    E E  E    E E  E    E   E
   |      |  |    | |  |    | |  |    |   |
   /      /  /    / /  /    / /  /    /   /

   Q.        Q.        Q.        Q.
|--------------------------------------------|
|-10b12-----10b12-----10b12-----10b12--------|
|--------------------------------------------|
|--------------------------------------------|
|--------------------------------------------|
|--------------------------------------------|
|
|  Q.        Q.        Q.        Q       +E
|--------------------------------------------|
|-19b21-----19b21-----19b21-----19b21---(19)-|
|--------------------------------------------|
|--------------------------------------------|
|--------------------------------------------|
|--------------------------------------------|


 Guitar Break
  E5VII                                       D5V  A5V
  Q.    Q.      H.              Q.    Q.      Q.   Q.
  |                                           |    |
  /                                           /    /

        |-3-|         |-3-|           |-3-|
  Q   E E E E E Q   E E E E E   Q   E E E E E Q.   Q.
|-----------------------------|--------------------------|
|-----------------------------|---------------3----------|
|-----------------------------|---------------2----2-----|
|---------------2---2---------|-2---2---------0----2-----|
|-------4p2p0---------4p2p0---|-------4p2p0--------0-----|
|-0---0-------4-------------4-|-------------4------------|
|
| H.            H.              H.            H.
|-----------------------------|--------------------------|
|-----------------------------|--------------------------|
|-----------------------------|--------------------------|
|-----------------------------|--------------------------|
|-----------------------------|--------------------------|
|-----------------------------|--------------------------|


  E5VII
  Q   E Q.      H.         H.       H.
  |
  /

                ~~~~~~~~~~~~~~~~~~~~~~~
        |-3-|
  Q   E E E E E H.        +H.      +H.
|-----------------------|-------------------|
|-----------------------|-------------------|
|-----------------------|-------------------|
|---------------2-------|-(2)------(2)------|
|-------4p2p0-----------|-------------------|
|-0---0-------4---------|-------------------|
|
| H.            H.         H.       H.
|-----------------------|-------------------|
|-----------------------|-------------------|
|-----------------------|-------------------|
|-----------------------|-------------------|
|-----------------------|-------------------|
|-----------------------|-------------------|


 Guitar Solo 3
  E5open
  e  E  e      e  E  e      e  E  e e E  e
  |     |      |     |      |     | |    |
  /     /      /     /      /     / /    /

  Q     E     +E  E  E     +E  Q.     E  E
|------17b19-(17)---20b22-(20)----------17pb19r==|
|------------------------------------------------|
|------------------------------------------------|
|------------------------------------------------|
|------------------------------------------------|
|------------------------------------------------|
|
| H.                        H.
|------------------------------------------------|
|------------------------------------------------|
|------------------------------------------------|
|------------------------------------------------|
|------------------------------------------------|
|------------------------------------------------|


    e  E  e  e E  e  e  E  e  e  E  e    e  E e   e  E   e  e  E  e  e E  e
    |     |  |    |  |     |  |     |    |    |   |      |  |     |  |    |
    /     /  /    /  /     /  /     /    /    /   /      /  /     /  /    /

                                         ~~~
   +Q     E  E E  E  E  E  E  E  E  E    Q.      +Q      E  Q     E  Q    E
|-(17)---15-17---15-14----------------|----------------------------------------|
|-------------------------15-15-------|----------------------------------------|
|----------------------------16s14-12-|-11------(11)-------12-------12---14b16-|
|-------------------------------------|----------------/14-------14------------|
|-------------------------------------|----------------------------------------|
|-------------------------------------|----------------------------------------|
|
|   H.               H.                  H.                 H.
|-------------------------------------|----------------------------------------|
|-------------------------------------|----------------------------------------|
|-------------------------------------|----------------------------------------|
|-------------------------------------|----------------------------------------|
|-------------------------------------|----------------------------------------|
|-------------------------------------|----------------------------------------|


    e  E e  e E  e     e  E  e  e E  e
    |    |  |    |     |     |  |    |
    /    /  /    /     /     /  /    /

   +Q.      E E  Q.          E  Q    E
|------------------------------------------|
|----------15------------------------------|
|-(14)----------14pb16r=====12-11---12-----|
|------------------------------------------|
|------------------------------------------|
|------------------------------------------|
|
|   H.                 Q.       Q    E
|------------------------------------------|
|-----------------------------------15b17r=|
|------------------------------------------|
|------------------------------------------|
|------------------------------------------|
|------------------------------------------|


    e    E       e    e     E   e   e    E  e e  E      e
    |            |    |         |   |       | |         |
    /            /    /         /   /       / /         /

    ~~~~
   +W.
|----------------------------------------------------------|
|----------------------------------------------------------|
|-(12)-----------------------------------------------------|
|----------------------------------------------------------|
|----------------------------------------------------------|
|----------------------------------------------------------|
|
|  +E   +E      +E   +Q        +E   Q       Q    E     +E
|----------------------------------------------------------|
|-(15)-(15)b17r(15)-(15)b17r==(15)-15b17r==12--------------|
|-----------------------------------------------14b16-(14)-|
|----------------------------------------------------------|
|----------------------------------------------------------|
|----------------------------------------------------------|


   e  E  e e  E e  e  E  e    e   E   e    e    E e   e  E e  e     E e   e  E E
   |     | |    |  |     |    |       |    |      |   |    |  |       |   |    |
   /     / /    /  /     /    /       /    /      /   /    /  /       /   /    /

   H.              H.                      H.                 H.
|---------------------------------------|----------------------------------------|
|---------------------------------------|----------------------------------------|
|---------------------------------------|----------------------------------------|
|---------------------------------------|----------------------------------------|
|---------------------------------------|----------------------------------------|
|---------------------------------------|----------------------------------------|
|
|  Q     Q    Q    Q     Q       +E   E    Q.        +Q.      Q.         +Q.
|-12----15---14---12-----------------12-|----------------------------------------|
|-----------------------15b17---(15)----|-15b17-----(15)-----14pb16r====(14)-----|
|---------------------------------------|----------------------------------------|
|---------------------------------------|----------------------------------------|
|---------------------------------------|----------------------------------------|
|---------------------------------------|----------------------------------------|


  C#5IV             D5V          Eb5VI  E5VII
   E     Q    Q   E   E  Q       Q       E
   |     |    |   |   |  |       |       |
   /     /    /   /   /  /       /       /

   H.                 Q.         Q       E
|------------------------------------------|
|----------------------------------------5-|
|------------------------------------------|
|------------------------------------------|
|------------------------------------------|
|------------------------------------------|
|
|                                        ~~
|  Q.        +Q.     +Q     Q       +E   E
|------------------------------------------|
|-12b14=====(12)r===(12)-------------------|
|--------------------------12b13---(12)----|
|---------------------------------------14-|
|------------------------------------------|
|------------------------------------------|


            E5open
   +Q       e  e  E e  e  E e  e  E e   e  E e e E e e  E e e E e
    |       |  |    |  |    |  |    |   |    | |   | |    | |   |
    /       /  /    /  /    /  /    /   /    / /   / /    / /   /

   +E  Q      +Q.     +Q.     +Q    E   E  Q   E Q   E  Q   Q   E
|-------------------------------------|---------------------------|
|--(5)-7b9====(7)-----(7)r====(7)---3-|----3-----2------1---------|
|-------------------------------------|-4------3-----2------0-----|
|-------------------------------------|-------------------------2-|
|-------------------------------------|---------------------------|
|-------------------------------------|---------------------------|
|
|  +H.                 H.               H.           H.
|-------------------------------------|---------------------------|
|-------------------------------------|---------------------------|
|-------------------------------------|---------------------------|
|-(14)--------------------------------|---------------------------|
|-------------------------------------|---------------------------|
|-------------------------------------|---------------------------|


  e E  e e E e e E e e E e   e E e e E e  e  E e e E  e
  |    | |   | |   | |   |   |   | |   |  |    | |    |
  /    / /   / /   / /   /   /   / /   /  /    / /    /

                                       ~~~~~~~~~~~~~~~~~~~~~
  E Q.     E E E E E Q   E   E E E E E E +H.
|--------------------------|-------0---0-(0)---------------|
|--------------------------|-----3---3---------------------|
|----------0h2h3p2p0-----0-|-2s4---------------------------|
|-0h2----------------2-----|-------------------------------|
|--------------------------|-------------------------------|
|--------------------------|-------------------------------|
|
| H.           H.            H.           Q.     Q    E
|--------------------------|-------------------------------|
|--------------------------|-------------------------15b17r|
|--------------------------|-------------------------------|
|--------------------------|-------------------------------|
|--------------------------|-------------------------------|
|--------------------------|-------------------------------|


    e  E  e  e  E e  e     E     e  e  E  e
    |     |  |    |  |           |  |     |
    /     /  /    /  /           /  /     /

 ~~~~~~
   +H.               H.
|--(0)--------------------------------------|
|-------------------------------------------|
|-------------------------------------------|
|-------------------------------------------|
|-------------------------------------------|
|-------------------------------------------|
|
|                    |---3----|
|  +Q     E  Q.      E   E    E  E  E  E  E
|-------------------------------------------|
|-(15)---12-15------12--15---12----12----12-|
|-------------------------------15----15----|
|-------------------------------------------|
|-------------------------------------------|
|-------------------------------------------|


   e       E  e       e  E       e  e       E  e       e  E       e
   |          |       |          |  |          |       |          |
   /          /       /          /  /          /       /          /

   H.                               H.
|-------------------------------------------------------------------|
|-------------------------------------------------------------------|
|-------------------------------------------------------------------|
|-------------------------------------------------------------------|
|-------------------------------------------------------------------|
|-------------------------------------------------------------------|
|
|  E       E  E       E  E       E  E       E  E       E  E       E
|-------------------------------------------------------------------|
|---------12---------12---------12---------12---------12---------12-|
|-15b15.5----15b15.5----15b15.5----15b15.5----15b15.5----15b15.5----|
|-------------------------------------------------------------------|
|-------------------------------------------------------------------|
|-------------------------------------------------------------------|


                                                C#5IV             D5V          Eb5E5VII
   e    E e   e  E  e  e      E e   e  E   e     E   Q     Q    E  E    Q      Q   E
   |      |   |     |  |        |   |      |     |   |     |    |  |    |      |   |
   /      /   /     /  /        /   /      /     /   /     /    /  /    /      /   /

                       ~~~~~~~~~~~~~~~~~~~~~~~
   Q.        +Q     E  Q.          +Q     +E     E   E  E  E  Q    Q       +Q.     E
|---------------------------------------------|--------16-17-17---17b19r==(17)----15-|
|-19b21-----(19)---17-19pb21======(19)r==(19)-|-17--20-------------------------------|
|---------------------------------------------|--------------------------------------|
|---------------------------------------------|--------------------------------------|
|---------------------------------------------|--------------------------------------|
|---------------------------------------------|--------------------------------------|
|
|  H.                  H.                        H.                Q.          Q   E
|---------------------------------------------|-----------------------------------15-|
|---------------------------------------------|--------------------------------------|
|---------------------------------------------|--------------------------------------|
|---------------------------------------------|--------------------------------------|
|---------------------------------------------|--------------------------------------|
|---------------------------------------------|--------------------------------------|


            E5open
   +Q        e  e   E     e  e   E     e  e  E     e
    |        |  |         |  |         |  |        |
    /        /  /         /  /         /  /        /

   +Q        E  Q.           H.
|-(15)\----------------------------------------------|
|----------------------------------------------------|
|----------------------------------------------------|
|----------------------------------------------------|
|----------------------------------------------------|
|----------------------------------------------------|
|
|   E     E  E  E   E     E  E   E     E  E  E     E
|--------15-15-15--------15-15--------15-15-------15-|
|--18b20-----------18b20--------18b20-------18b20----|
|----------------------------------------------------|
|----------------------------------------------------|
|----------------------------------------------------|
|----------------------------------------------------|


   e   E  e     e  E  e  e     E  e  e     E  e    e  E  e  e   E  e  e   E  e  e    E  e
   |      |     |     |  |        |  |        |    |     |  |      |  |      |  |       |
   /      /     /     /  /        /  /        /    /     /  /      /  /      /  /       /

   H.                    H.                        E  E  E  E   E  E  E   E  E  Q       E
|-----------------------------------------------|-----------------------------------------|
|-----------------------------------------------|-----------------------------------------|
|-----------------------------------------------|-14-------14--------14--------14b16---12-|
|-----------------------------------------------|-14-12----14-----12-14--12----14b16---12-|
|-----------------------------------------------|-------14-----14-----------14------------|
|-----------------------------------------------|-----------------------------------------|
|
|  E   E  E     E  E  E  E     E  E  E     E  E    Q     E  Q.        H.
|-15--15-------15-15-15-------15-15-------15-15-|-15--------------------------------------|
|--------18b20----------18b20-------18b20-------|-----------------------------------------|
|-----------------------------------------------|-----------------------------------------|
|-----------------------------------------------|-----------------------------------------|
|-----------------------------------------------|-----------------------------------------|
|-----------------------------------------------|-----------------------------------------|


    e  E e e  E e e   E   e e  E e
    |    | |    | |       | |    |
    /    / /    / /       / /    /

                  |--3--|
   +Q.     Q.     E E   E E Q.
|----------------------------------|
|----------5------3h5p==3p0--------|
|-(12)----------------------0------|
|-(12)----------------------0------|
|----------------------------------|
|----------------------------------|
|
|   H.            H.
|----------------------------------|
|----------------------------------|
|----------------------------------|
|----------------------------------|
|----------------------------------|
|----------------------------------|


 Guitar Break
  E                                     E
   Q       Q       Q   H.               Q   Q  Q  H.
   |                                    |
   /                                    /

                                        \1
   H.                  H.               W.
|-------------------------------------|-----------------|
|-------------------------------------|-0---------------|
|-------------------------------------|-----------------|
|-------------------------------------|-----------------|
|-------------------------------------|-----------------|
|-------------------------------------|-----------------|
|
|  E     Q    Q.       E   E  E  Q.     H.        H.
|-------12----------------------------|-----------------|
|------------15b17----15--12----------|-----------------|
|-14b16----------------------14-12----|-----------------|
|-------------------------------------|-----------------|
|-------------------------------------|-----------------|
|-------------------------------------|-----------------|


  E
  Gtr I
  Q    Q   Q     H.
|----------------------------------|
|----------------------------------|
|----------------------------------|
|-2--------------------------------|
|-2--------------------------------|
|-0--------------------------------|
|
| Gtr II
| E  E E E E  E  E   E  E  E  E  E
|----------------------------------|
|------5-----10--------14-------19-|
|----3-----8--------12-------17----|
|-2------7------11--------16-------|
|----------------------------------|
|----------------------------------|
|
| Gtr III
| H.             H.
|----------------------------------|
|----------------------------------|
|----------------------------------|
|----------------------------------|
|----------------------------------|
|----------------------------------|


                    Guitar Solo 4
  D                  E
   W.                 E  E E  E E E  H.
|------------------|-10--8-7---------------------------|
|------------------|---------10-8-7--------------------|
|--7---------------|-----------------------------------|
|--7---------------|-----------------------------------|
|--5---------------|-----------------------------------|
|------------------|-----------------------------------|
|
|  W.                 H.             E   E  E  E  E  E
|------------------|----------------15--14-12----------|
|-15\--------------|--------------------------15-13-12-|
|------------------|-----------------------------------|
|------------------|-----------------------------------|
|------------------|-----------------------------------|
|------------------|-----------------------------------|
|
|  H.      H.         H.             H.
|------------------|-----------------------------------|
|------------------|-----------------------------------|
|------------------|-----------------------------------|
|------------------|-----------------------------------|
|------------------|-----------------------------------|
|------------------|-----------------------------------|


  H.            E  E  E  E  E  E
|--------------10--8--7----------|
|-----------------------10--8--7-|
|--------------------------------|
|--------------------------------|
|--------------------------------|
|--------------------------------|
|
| H.            E  E  E  E  E  E
|--------------15-14-12----------|
|-----------------------15-13-12-|
|--------------------------------|
|--------------------------------|
|--------------------------------|
|--------------------------------|
|
| E  E E E E E  E  E  E  E  E  E
|-7--5-3--------7--5--3----------|
|--------7-5-3-----------7--5--3-|
|--------------------------------|
|--------------------------------|
|--------------------------------|
|--------------------------------|


   E  E E  E E E  H.                  H.            E  E  E  E  E  E
|-10--8-7---------------------------|--------------10--8--7----------|
|---------10-8-7--------------------|-----------------------10--8--7-|
|-----------------------------------|--------------------------------|
|-----------------------------------|--------------------------------|
|-----------------------------------|--------------------------------|
|-----------------------------------|--------------------------------|
|
|  H.             E   E  E  E  E  E   H.            E  E  E  E  E  E
|----------------15--14-12----------|--------------15-14-12----------|
|--------------------------15-13-12-|-----------------------15-13-12-|
|-----------------------------------|--------------------------------|
|-----------------------------------|--------------------------------|
|-----------------------------------|--------------------------------|
|-----------------------------------|--------------------------------|
|
|  H.             H.                  E  E E E E E  E  E  E  E  E  E
|-----------------------------------|-7--5-3--------7--5--3----------|
|-----------------------------------|--------7-5-3-----------7--5--3-|
|-----------------------------------|--------------------------------|
|-----------------------------------|--------------------------------|
|-----------------------------------|--------------------------------|
|-----------------------------------|--------------------------------|


   E  E E  Q.       Q.      E  E  E
|-10--8-7------------------10--8--7-|
|-----------------------------------|
|-----------------------------------|
|-----------------------------------|
|-----------------------------------|
|-----------------------------------|
|
|  Q.      E   E  E Q.      E  E  E
|---------15--14-12--------15-14-12-|
|-----------------------------------|
|-----------------------------------|
|-----------------------------------|
|-----------------------------------|
|-----------------------------------|
|
|  Q.      Q.       E  E E  E  E  E
|-------------------7--5-3--7--5--3-|
|-----------------------------------|
|-----------------------------------|
|-----------------------------------|
|-----------------------------------|
|-----------------------------------|


                                     6/8
   E  E E  Q.       Q.      E  E  E   S   E    E  S Q   E
|-10--8-7------------------10--8--7-|----(8)--(7)---------|
|-----------------------------------|---------------------|
|-----------------------------------|---------------------|
|-----------------------------------|---------------2---2-|
|-----------------------------------|---------------2---2-|
|-----------------------------------|---------------0---0-|
|
|  Q.      E   E  E Q.      E  E  E   S   E    E  S Q.
|---------15--14-12--------15-14-12-|---(15)-(14)---------|
|-----------------------------------|---------------------|
|-----------------------------------|---------------------|
|-----------------------------------|---------------------|
|-----------------------------------|---------------------|
|-----------------------------------|---------------------|
|
|  Q.      Q.       E  E E  E  E  E   S   E    E  S Q.
|-------------------7--5-3--7--5--3-|----(7)--(5)---------|
|-----------------------------------|---------------------|
|-----------------------------------|---------------------|
|-----------------------------------|---------------------|
|-----------------------------------|---------------------|
|-----------------------------------|---------------------|


                                                                      E5VII
 12/8
  +W.                +W.              +W.              +H.      +Q.   +Q   E
|------------------|----------------|----------------|------------------------|
|------------------|----------------|----------------|------------------------|
|------------------|----------------|----------------|---------------------9\-|
|-(2)--------------|-(2)------------|-(2)------------|-(2)------(2)---(2)--9\-|
|-(2)--------------|-(2)------------|-(2)------------|-(2)------(2)---(2)--7\-|
|-(0)--------------|-(0)------------|-(0)------------|-(0)------(0)---(0)-----|
|
|                     <
|  H.      H.         W.              +W.              +H.      +Q.   +Q   E
|------------------|----------------|----------------|------------------------|
|------------------|-[9]------------|-(9)------------|-(9)------(9)---(9)-----|
|------------------|----------------|----------------|---------------------9\-|
|------------------|----------------|----------------|---------------------9\-|
|------------------|----------------|----------------|---------------------7\-|
|------------------|----------------|----------------|------------------------|


  Gtr I
   H.           H.
  Gtr II
  +Q    Q.   Q.     Q.   E
|--------------------------|
|--------------------------|
|-(9)\--9\---9\-----9\---9-|
|-(9)\--9\---9\-----9\---9-|
|-(7)\--7\---7\-----7\---7-|
|--------------------------|


   H.           H.            H.           H.
  +Q    Q.   Q.     Q.   E   +Q    Q.   Q.     Q.   E
|--------------------------|--------------------------|
|--------------------------|--------------------------|
|-(9)\--9\---9\-----9\---9-|-(9)\--9\---9\-----9\---9-|
|-(9)\--9\---9\-----9\---9-|-(9)\--9\---9\-----9\---9-|
|-(7)\--7\---7\-----7\---7-|-(7)\--7\---7\-----7\---7-|
|--------------------------|--------------------------|


                             Verse 3
                          E5open
  Gtr I
   H.           Q.     Q  E   +Q    e e E e e  E e e E e
                          |    |    | |   | |    | |   |
                          /    /    / /   / /    / /   /

  +Q    Q.   Q.     Q.    E   +Q    H       H.
|---------------------------|----------------------------|
|---------------------------|----------------------------|
|-(9)\--9\---9\-----9\----9-|-(9)\-----------------------|
|-(9)\--9\---9\-----9\----9-|-(9)\-----------------------|
|-(7)\--7\---7\-----7\----7-|-(7)\-----------------------|
|---------------------------|----------------------------|


  e E e e  E   e   e    E  e  e E  e
  |   | |      |   |       |  |    |
  /   / /      /   /       /  /    /

  H        E   E   Q       E  Q    e
|------------------------------------|
|---------14------12b13--------------|
|---------14-(14)-12b13---13-13---13-|
|----------------------------14---14-|
|------------------------------------|
|------------------------------------|


   e  E e e  E e e E e e  E e
   |    | |    | |   | |    |
   /    / /    / /   / /    /

   Q    E H.           Q.
|-----------------------------|
|-----------------------------|
|-13\-------------------------|
|-14\-------------------------|
|-----------------------------|
|-----------------------------|


  e E e   e E e e E e e E e   e E e  e E e e E e e E e
  |   |   |   | |   | |   |   |   |  |   | |   | |   |
  /   /   /   / /   / /   /   /   /  /   / /   / /   /

                              ~
  Q   Q.      E E E E Q   E   Q   H.           H
|-----6b7-----3-0-----------|--------------------------|
|-----7b8---------3-0-------|--------------------------|
|---------------------2---0-|-1------------------------|
|---------------------------|--------------------------|
|---------------------------|--------------------------|
|---------------------------|--------------------------|


  e E e   e E e e E  e  e E e
  |   |   |   | |    |  |   |
  /   /   /   / /    /  /   /

  Q   H.            +H
|-----6b7-----------(6)-------|
|-----7b8-----------(7)-------|
|-----------------------------|
|-----------------------------|
|-----------------------------|
|-----------------------------|


                        D5V          A5V
   Q   E Q.   H.        E  E E E E E E  E E E E E
   |                    |  | | | | | |  | | | | |
   /                    /  / / / / / /  / / / / /

   ~~~
  +Q   H      H.        H.           H.
|-(6)-----------------|---------------------------|
|-(7)-----------------|---------------------------|
|---------------------|---------------------------|
|---------------------|---------------------------|
|---------------------|---------------------------|
|---------------------|---------------------------|


   Chorus
    E                           D    A               E
    Gtrs I, II
         |-3-|        |-3-|                               |-3-|        |-3-|
    Q  E E E E E Q  E E E E E   Q.   Q.   +H.        Q  E E E E E Q  E E E E E
||----------------------------|--------------------|---------------------------|
||o---------------------------|-3------------------|---------------------------|
||----------------------------|-2----2----(2)------|---------------------------|
||---------------2--2---------|-0----2----(2)------|--------------2--2---------|
||o------4p2p0--------4p2p0---|------0----(0)------|------4p2p0--------4p2p0---|
||--0--0-------0------------0-|--------------------|-0--0-------0------------0-|


               D    A        E                           D    A
       |-3-|                      |-3-|        |-3-|
  Q  E E E E E Q.   Q.    3x Q  E E E E E Q  E E E E E   Q.   Q.   +H.
|-------------------------||---------------------------|------------------|
|--------------3---------o||---------------------------|-3----------------|
|--------------2----2-----||---------------------------|-2----2----(2)----|
|-2--2---------0----2-----||--------------2--2---------|-0----2----(2)----|
|------4p2p0--------0----o||------4p2p0--------4p2p0---|------0----(0)----|
|------------0------------||-0--0-------0------------0-|------------------|


  E                             D       A
        |-3-|         |-3-|
  Q   E E E E E Q   E E E E E   H.      H.
|-----------------------------|-----------------|
|-----------------------------|-3---------------|
|-----------------------------|-2-------2-------|
|---------------2---2---------|-0-------2-------|
|-------4p2p0---------4p2p0---|---------0-------|
|-0---0-------0-------------0-|-----------------|
|
| Gtr III
| H.            H.              H.      H.
|-----------------------------|-----------------|
|-----------------------------|-----------------|
|-----------------------------|-----------------|
|-----------------------------|-----------------|
|-----------------------------|-----------------|
|-----------------------------|-----------------|


   Outro
    E
         |--3--|        |--3--|
    Q  E E E   E E Q  E E E   E E
||----------------------------------|
||o---------------------------------|
||----------------------------------|
||-----------------2--2-------------|
||o------4p2p==0--------4p2p==0-----|
||--0--0---------0--------------0---|
|
|   Q  Q     Q     Q  Q     Q
||--0--0-----0-----0--0-----0-------|
||o-5--------5--------5-------------|
||----------------------------------|
||----------------------------------|
||o---------------------------------|
||----------------------------------|


  D         A
  Gtr I
  H.        H.
  H.        H.         3x
|----------------------||
|-3-------------------o||
|-2---------2----------||
|-0---------2----------||
|-----------0---------o||
|----------------------||
|
| Q   Q  Q  Q   Q  Q   3x
|-0---0--0--0---0--0---||
|-5------5------5-----o||
|----------------------||
|----------------------||
|---------------------o||
|----------------------||


  E                                 D5V       A5V
  H.              H.                Q   Q  Q  Q   Q  Q
                                    |   |  |  |   |  |
                                    /   /  /  /   /  o

        |--3--|         |--3--|
  Q   E E E   E E Q   E E E   E E   Q   Q  Q  Q   Q  Q
|---------------------------------|----------------------|
|---------------------------------|-3---3--3-------------|
|---------------------------------|-2---2--2--2---2------|
|-----------------2---2-----------|-0---0--0--2---2------|
|-------4p2p==0---------4p2p==0---|-----------0---0------|
|-0---0---------0---------------0-|------------------3---|
|
| Q   Q     Q     Q   Q     Q       H.        H.
|-0---0-----0-----0---0-----0-----|----------------------|
|-5---------5---------5-----------|----------------------|
|---------------------------------|----------------------|
|---------------------------------|----------------------|
|---------------------------------|----------------------|
|---------------------------------|----------------------|


  E5open          D5V      A5V        E5open
  W.              Q  Q  Q  Q  Q  Q    W.
  |               |  |  |  |  |  |    |
  /               /  /  /  /  /  o    /

  W.              Q  Q  Q  Q  Q  Q    W.
|---------------|-------------------|-------|
|---------------|-3--3--3-----------|-------|
|---------------|-2--2--2--2--2-----|-------|
|-2-------------|-0--0--0--2--2-----|-2-----|
|-2-------------|----------0--0-----|-2-----|
|-0-------------|----------------3--|-0-----|


  H.=H           Q=100Q=207
  D5V      A5V        E5open
  Q  Q  Q  Q  Q  Q    W.              +W.              +W.
  |  |  |  |  |  |    |                |                |
  /  /  /  /  /  o    /                /                /

  Q  Q  Q  Q  Q  Q    W.              +W.              +W.
|-------------------|---------------|----------------|--------|
|-3--3--3-----------|---------------|----------------|--------|
|-2--2--2--2--2-----|---------------|----------------|--------|
|-0--0--0--2--2-----|-2-------------|-(2)------------|-(2)----|
|----------0--0-----|-2-------------|-(2)------------|-(2)----|
|----------------3--|-0-------------|-(0)------------|-(0)----|


                                    E
  +W.              +W.              Q.   Q.   H.
   |                |               |
   /                /               /

  +W.              +W.              Q.   Q.   H.
|----------------|----------------|-----------------*|
|----------------|----------------|-----------------*|
|----------------|----------------|-9---------------*|
|-(2)------------|-(2)------------|-9---------------*|
|-(2)------------|-(2)------------|-7---------------*|
|-(0)------------|-(0)------------|-----------------*|



Duration Legend
---------------
W - whole; H - half; Q - quarter; E - 8th; S - 16th; T - 32nd; X - 64th; a - acciaccatura
+ - note tied to previous; . - note dotted; .. - note double dotted
Uncapitalized letters represent notes that are staccato (1/2 duration)
Irregular groupings are notated above the duration line
Duration letters will always appear directly above the note/fret number it represents the
duration for.  Duration letters with no fret number below them represent rests.  Multi-
bar rests are notated in the form Wxn, where n is the number of bars to rest for.  Low
melody durations appear below the staff

Tablature Legend
----------------
 h   - hammer-on
 p   - pull-off
 b   - bend
 pb  - pre-bend
 r   - bend release (if no number after the r, then release immediately)
 /\  - slide into or out of (from/to "nowhere")
 s   - legato slide
 S   - shift slide
<n> - natural harmonic
[n]  - artificial harmonic
n(n) - tapped harmonic
 ~   - vibrato
 tr  - trill
 T   - tap
 TP  - trem. picking
 PM  - palm muting
\n/  - tremolo bar dip; n = amount to dip
 \n  - tremolo bar down
 n/  - tremolo bar up
/n\  - tremolo bar inverted dip
 =   - hold bend; also acts as connecting device for hammers/pulls
 <> - volume swell (louder/softer)
 x   - on rhythm slash represents muted slash
 o   - on rhythm slash represents single note slash

Misc Legend
-----------
 |  - bar
||  - double bar
||o - repeat start
o|| - repeat end
*|  - double bar (ending)
 :  - bar (freetime)
 $  - Segno
 &  - Coda
Tempo markers - <E/E./Q/Q./H/H.> = BPM(8/16=s8/s16), where s8 = swing 8ths, s16 = swing 16ths


*** GuitarCats.com ***