Tabs by Artist
0-9 A B C D E F G H I J K L M N O P Q R S T U V W X Y Z

198D

As recorded by At The Drive-In

(From the 1999 Album VAYA)

Tablature (Tab) for Guitar
Transcribed by Robert Liu
Words and Music by At The Drive In
Arranged by At The Drive In

Gtr I (E A D G B E) - 'Jim (Keyboards)'

Gtr II (E A D G B E) - 'Omar (Clean)'

Gtr III (E A D G B E) - 'Jim (Keyboards)'

Gtr IV (E A D G B E) - 'Jim (Distorted)'

Gtr V (E A D G B E) - 'Omar (Distorted)'


   Intro
    Q=90
      N.C.
   4/4
    Gtr I
    E E E E E E E E   E E E E E E Q
||------------------|-----------------||
||o-----------------|----------------o||
||----2---2---2---2-|---2---2---2-0---||
||------------------|-----------------||
||o-----------------|----------------o||
||------------------|-----------------||


  N.C.
  E E    E E  E E E   E   E E    E E  E E Q
|-----------------------|-----------------------|
|-----------------------|-----------------------|
|---2------2----2-----2-|---2------2----2-0-----|
|-----------------------|-----------------------|
|-----------------------|-----------------------|
|-----------------------|-----------------------|
|
| Gtr II
| E S E.   Q.     S S E   E S E.   Q.     S S E
|-----5----3------3p2---|-----------------------|
|---0-----------------0-|---0h3----2------2p0---|
|-0---------------------|-0-------------------0-|
|-----------------------|-----------------------|
|-----------------------|-----------------------|
|-----------------------|-----------------------|


  N.C.
  E E    E E  E    E E   E   E   E    E E  E    E Q
|--------------------------|---------------------------|
|--------------------------|---------------------------|
|---2------2-------2-----2-|-----2------2-------2-0----|
|--------------------------|---------------------------|
|--------------------------|---------------------------|
|--------------------------|---------------------------|
|
| E S E.   E.   E.   S S E   S S S E.   E.   E.   S E.
|-----5----3----3----3p2---|-3p2-----------------------|
|---0--------------------0-|-------3----2----2----2p0--|
|-0------------------------|-----0---------------------|
|--------------------------|---------------------------|
|--------------------------|---------------------------|
|--------------------------|---------------------------|


  N.C.
  E E    E E  E    E E E   E E    E E  E    E Q
|------------------------|--------------------------|
|------------------------|--------------------------|
|---2------2-------2---2-|---2------2-------2-0-----|
|------------------------|--------------------------|
|------------------------|--------------------------|
|------------------------|--------------------------|
|
| E S E.   E.   E.   E E   E S E.   E.   E.   S S E
|-----5----3----3----3p2-|-----3--------------------|
|---0--------------------|---0------2----2----2p0---|
|-0----------------------|-0----------------------0-|
|------------------------|--------------------------|
|------------------------|--------------------------|
|------------------------|--------------------------|


  N.C.
  E E    E E  E    E E   E   E E    E E  E    E Q
|--------------------------|------------------------|
|--------------------------|------------------------|
|---2------2-------2-----2-|---2------2-------2-0---|
|--------------------------|------------------------|
|--------------------------|------------------------|
|--------------------------|------------------------|
|
| E S E.   E.   E.   S S E   E S E.   E.   E.   E E
|-----5----3---------3p2---|------------------------|
|---0-----------0--------0-|---0h3----2---------2p0-|
|-0------------------------|-0-------------0--------|
|--------------------------|------------------------|
|--------------------------|------------------------|
|--------------------------|------------------------|


 Bridge
    A
  E E E E E E E E   E E E E E E Q
|-----------------|----------------|
|-----------------|----------------|
|---2---2---2---2-|---2---2---2-0--|
|-----------------|----------------|
|-----------------|----------------|
|-----------------|----------------|


 Verse
  N.C.
  Gtr III
   Q.       Q.    Q        Q.       Q.    Q
|-17-------15-----------|-----------------------|
|----------------19-----|-17-------19----15-----|
|-----------------------|-----------------------|
|-----------------------|-----------------------|
|-----------------------|-----------------------|
|-----------------------|-----------------------|
|
| Gtr II
|  E  S E.  Q.    S S E    E  S E.  Q.    S S E
|-------5---3-----3p2---|-----------------------|
|-----0---------------0-|-----0h3---2-----2p0---|
|--0--------------------|--0------------------0-|
|-----------------------|-----------------------|
|-----------------------|-----------------------|
|-----------------------|-----------------------|


  N.C.
   Q.       Q.     Q        Q.        H           +E
|-17-------15------------|----------------------------|
|-----------------19-----|-17--------15----------(15)-|
|------------------------|----------------------------|
|------------------------|----------------------------|
|------------------------|----------------------------|
|------------------------|----------------------------|
|
|  E  S E.  E. E.  S S E    S S S E.  E. E. S E.
|-------5---3--3---3p2---|--3p2-----------------------|
|-----0----------------0-|--------3---2--2--2p0-------|
|--0---------------------|------0---------------------|
|------------------------|----------------------------|
|------------------------|----------------------------|
|------------------------|----------------------------|


  N.C.
   Q.       Q.     Q      Q.       Q.     Q
|-17-------15----------|------------------------|
|-----------------19---|-17-------19-----15-----|
|----------------------|------------------------|
|----------------------|------------------------|
|----------------------|------------------------|
|----------------------|------------------------|
|
|  E  S E.  E. E.  E E    E  S E.  E. E.  S S E
|-------5---3--3---3p2-|-------3----------------|
|-----0----------------|-----0-----2--2---2p0---|
|--0-------------------|--0-------------------0-|
|----------------------|------------------------|
|----------------------|------------------------|
|----------------------|------------------------|


  N.C.
   Q.       Q.     Q        Q.       Q.     Q
|-17-------15------------|----------------------|
|-----------------19-----|-17-------15----------|
|------------------------|-----------------16---|
|------------------------|----------------------|
|------------------------|----------------------|
|------------------------|----------------------|
|
|  E  S E.  E. E.  S S E    E  S E.  E. E.  E E
|-------5---3------3p2---|----------------------|
|-----0--------0-------0-|-----0h3---2------2p0-|
|--0---------------------|--0-----------0-------|
|------------------------|----------------------|
|------------------------|----------------------|
|------------------------|----------------------|


 Pre-Chorus
  N.C.
   W                        +W
|------------------------|--------------------------|
|------------------------|--------------------------|
|-12---------------------|-(12)---------------------|
|------------------------|--------------------------|
|------------------------|--------------------------|
|------------------------|--------------------------|
|
| Gtr I
|  E E    E E  E E E   E     E  E    E E  E E Q
|------------------------|--------------------------|
|------------------------|--------------------------|
|----2------2----2-----2-|------2------2----2-0-----|
|------------------------|--------------------------|
|------------------------|--------------------------|
|------------------------|--------------------------|
|
| Gtr II
|  E S E.   Q.     S S E     E  S E.   Q.     S S E
|------5----3------3p2---|--------------------------|
|----0-----------------0-|------0h3----2------2p0---|
|--0---------------------|---0--------------------0-|
|------------------------|--------------------------|
|------------------------|--------------------------|
|------------------------|--------------------------|


  N.C.
  Gtr I
  E E    E E  E    E E   E   E   E    E E  E    E q
|--------------------------|---------------------------|
|--------------------------|---------------------------|
|---2------2-------2-----2-|-----2------2-------2-0----|
|--------------------------|---------------------------|
|--------------------------|---------------------------|
|--------------------------|---------------------------|
|
| Gtr II
| E S E.   E.   E.   S S E   S S S E.   E.   E.   S E.
|-----5----3----3----3p2---|-3p2-----------------------|
|---0--------------------0-|-------3----2----2----2p0--|
|-0------------------------|-----0---------------------|
|--------------------------|---------------------------|
|--------------------------|---------------------------|
|--------------------------|---------------------------|


   Chorus
    Q=95
    N.C.
    Gtr IV
     E  S  S  S  S  E  S  S  S  S  S  S  E   E S S S S E S S S S S S E   3x
||-----------------------------------------|-----------------------------||
||o----------------------------------------|----------------------------o||
||--14-14-14-14-14-12-12-12-12-12-11s12-11-|-7-7-7-7-7-6-6-6-6-6-6s4-4---||
||---x--x--x--x--x--x--x--x--x--x--xs=x--x-|-x-x-x-x-x-x-x-x-x-x-xsx-x---||
||o-12-12-12-12-12-10-10-10-10-10--9s10--9-|-5-5-5-5-5-4-4-4-4-4-4s2-2--o||
||-----------------------------------------|-----------------------------||
|
|   Gtr V
|    E  S  S  S  S  E  S  S  S  S  S  S  E   E S S S S E S S S S S S E   3x
||-----------------------------------------|-----------------------------||
||o----------------------------------------|----------------------------o||
||--14-14-14-14-14-12-12-12-12-12-11s12-11-|-7-7-7-7-7-6-6-6-6-6-6s4-4---||
||---x--x--x--x--x--x--x--x--x--x--xs=x--x-|-x-x-x-x-x-x-x-x-x-x-xsx-x---||
||o-12-12-12-12-12-10-10-10-10-10--9s10--9-|-5-5-5-5-5-4-4-4-4-4-4s2-2--o||
||-----------------------------------------|-----------------------------||


                                           Q=90
  N.C.                                     B          A
                                           >          >
   E  S  S  S  S  E  S  S  S  S  S  S  E   W          W
|----------------------------------------|----------|------|
|----------------------------------------|----------|------|
|-14-14-14-14-14-12-12-12-12-12-11s12-11-|----------|------|
|--x--x--x--x--x--x--x--x--x--x--xs=x--x-|----------|------|
|-12-12-12-12-12-10-10-10-10-10--9s10--9-|-2--------|------|
|----------------------------------------|----------|-5----|
|
|                                          Gtr II
|  E  S  S  S  S  E  S  S  S  S  S  S  E   W          W
|----------------------------------------|----------|------|
|----------------------------------------|----------|------|
|-14-14-14-14-14-12-12-12-12-12-11s12-11-|----------|------|
|--x--x--x--x--x--x--x--x--x--x--xs=x--x-|----------|------|
|-12-12-12-12-12-10-10-10-10-10--9s10--9-|-2--------|------|
|----------------------------------------|----------|-5----|


 Bridge
  N.C.
  >
  W                 +W
|-----------------|------------------|
|-----------------|------------------|
|-----------------|------------------|
|-----------------|------------------|
|-----------------|------------------|
|-3---------------|-(3)--------------|
|
| W                 +W
|-----------------|------------------|
|-----------------|------------------|
|-----------------|------------------|
|-----------------|------------------|
|-----------------|------------------|
|-3---------------|-(3)--------------|
|
| Gtr I
| E E E E E E E E    E  E E E E E Q
|-----------------|------------------|
|-----------------|------------------|
|---2---2---2---2-|-----2---2---2-0--|
|-----------------|------------------|
|-----------------|------------------|
|-----------------|------------------|


 Verse
  N.C.
  Gtr I
  E E    E E  E E E   E   E E    E E  E E Q
|-----------------------|-----------------------|
|-----------------------|-----------------------|
|---2------2----2-----2-|---2------2----2-0-----|
|-----------------------|-----------------------|
|-----------------------|-----------------------|
|-----------------------|-----------------------|
|
| E S E.   Q.     S S E   E S E.   Q.     S S E
|-----5----3------3p2---|-----------------------|
|---0-----------------0-|---0h3----2------2p0---|
|-0---------------------|-0-------------------0-|
|-----------------------|-----------------------|
|-----------------------|-----------------------|
|-----------------------|-----------------------|


  N.C.
  E E    E E  E    E E   E   E   E    E E  E    E Q
|--------------------------|---------------------------|
|--------------------------|---------------------------|
|---2------2-------2-----2-|-----2------2-------2-0----|
|--------------------------|---------------------------|
|--------------------------|---------------------------|
|--------------------------|---------------------------|
|
| E S E.   E.   E.   S S E   S S S E.   E.   E.   S E.
|-----5----3----3----3p2---|-3p2-----------------------|
|---0--------------------0-|-------3----2----2----2p0--|
|-0------------------------|-----0---------------------|
|--------------------------|---------------------------|
|--------------------------|---------------------------|
|--------------------------|---------------------------|


  N.C.
  E E    E E  E    E E E   E E    E E  E    E Q
|------------------------|--------------------------|
|------------------------|--------------------------|
|---2------2-------2---2-|---2------2-------2-0-----|
|------------------------|--------------------------|
|------------------------|--------------------------|
|------------------------|--------------------------|
|
| E S E.   E.   E.   E E   E S E.   E.   E.   S S E
|-----5----3----3----3p2-|-----3--------------------|
|---0--------------------|---0------2----2----2p0---|
|-0----------------------|-0----------------------0-|
|------------------------|--------------------------|
|------------------------|--------------------------|
|------------------------|--------------------------|


  N.C.
  E E    E E  E    E E   E   E E    E E  E    E Q
|--------------------------|------------------------|
|--------------------------|------------------------|
|---2------2-------2-----2-|---2------2-------2-0---|
|--------------------------|------------------------|
|--------------------------|------------------------|
|--------------------------|------------------------|
|
| E S E.   E.   E.   S S E   E S E.   E.   E.   E E
|-----5----3---------3p2---|------------------------|
|---0-----------0--------0-|---0h3----2---------2p0-|
|-0------------------------|-0-------------0--------|
|--------------------------|------------------------|
|--------------------------|------------------------|
|--------------------------|------------------------|


 Pre-Chorus
  N.C.
  Gtr III
   Q.       Q.    Q        Q.       Q.    Q
|-17-------15-----------|-----------------------|
|----------------19-----|-17-------15----17-----|
|-----------------------|-----------------------|
|-----------------------|-----------------------|
|-----------------------|-----------------------|
|-----------------------|-----------------------|
|
|  E  S E.  Q.    S S E    E  S E.  Q.    S S E
|-------5---3-----3p2---|-----------------------|
|-----0---------------0-|-----0h3---2-----2p0---|
|--0--------------------|--0------------------0-|
|-----------------------|-----------------------|
|-----------------------|-----------------------|
|-----------------------|-----------------------|


  N.C.                     D                  G/D
   Q.       Q.     Q        Q.      Q.      Q
|-17-------15------------|----------------------|
|-----------------19-----|-17------15-----------|
|------------------------|-----------------16---|
|------------------------|----------------------|
|------------------------|----------------------|
|------------------------|----------------------|
|
| Gtr IV
|                           <
|  W                        W
|------------------------|----------------------|
|------------------------|----------------------|
|------------------------|-14-------------------|
|------------------------|----------------------|
|------------------------|----------------------|
|------------------------|----------------------|
|
| Gtr II
|  E  S E.  E. E.  S S E    E  E E  E  E E  E E
|-------5---3--3---3p2---|----------------------|
|-----0----------------0-|--3--3-3--3--3-3--3-0-|
|--0---------------------|--x--x-x--x--x-x--x-0-|
|------------------------|--0--0-0--0--0-0--0-0-|
|------------------------|----------------------|
|------------------------|----------------------|


   Chorus
    Q=95
    N.C.
    Gtr IV
     E  S  S  S  S  E  S  S  S  S  S  S  E   E S S S S E S S S S S S E   3x
||-----------------------------------------|-----------------------------||
||o----------------------------------------|----------------------------o||
||--14-14-14-14-14-12-12-12-12-12-11s12-11-|-7-7-7-7-7-6-6-6-6-6-6s4-4---||
||---x--x--x--x--x--x--x--x--x--x--xs=x--x-|-x-x-x-x-x-x-x-x-x-x-xsx-x---||
||o-12-12-12-12-12-10-10-10-10-10--9s10--9-|-5-5-5-5-5-4-4-4-4-4-4s2-2--o||
||-----------------------------------------|-----------------------------||
|
|   Gtr V
|    E  S  S  S  S  E  S  S  S  S  S  S  E   E S S S S E S S S S S S E   3x
||-----------------------------------------|-----------------------------||
||o----------------------------------------|----------------------------o||
||--14-14-14-14-14-12-12-12-12-12-11s12-11-|-7-7-7-7-7-6-6-6-6-6-6s4-4---||
||---x--x--x--x--x--x--x--x--x--x--xs=x--x-|-x-x-x-x-x-x-x-x-x-x-xsx-x---||
||o-12-12-12-12-12-10-10-10-10-10--9s10--9-|-5-5-5-5-5-4-4-4-4-4-4s2-2--o||
||-----------------------------------------|-----------------------------||


                                           Q=90
  N.C.                                     B               A
                                           >                <
   E  S  S  S  S  E  S  S  S  S  S  S  E   W                W
|----------------------------------------|---------------|---------------|
|----------------------------------------|---------------|---------------|
|-14-14-14-14-14-12-12-12-12-12-11s12-11-|---------------|-14------------|
|--x--x--x--x--x--x--x--x--x--x--xs=x--x-|---------------|---------------|
|-12-12-12-12-12-10-10-10-10-10--9s10--9-|-2-------------|---------------|
|----------------------------------------|---------------|---------------|
|
|                                          Gtr II
|  E  S  S  S  S  E  S  S  S  S  S  S  E   Q.   Q  E E E    E Q  Q  Q.
|----------------------------------------|------2--------|-------0-------|
|----------------------------------------|---------3-----|----2-----2----|
|-14-14-14-14-14-12-12-12-12-12-11s12-11-|-------------4-|---------------|
|--x--x--x--x--x--x--x--x--x--x--xs=x--x-|---------------|---------------|
|-12-12-12-12-12-10-10-10-10-10--9s10--9-|-2---------2---|--0------------|
|----------------------------------------|---------------|---------------|


 Bridge
  G
  Gtr I
   W               +W
|---------------|-------------------|
|---------------|-------------------|
|--2------------|--(2)--------------|
|---------------|-------------------|
|---------------|-------------------|
|---------------|-------------------|
|
| Gtr IV
|  <
|  W               +W
|---------------|-------------------|
|---------------|-------------------|
|-14------------|-(14)--------------|
|---------------|-------------------|
|---------------|-------------------|
|---------------|-------------------|
|
| Gtr II          Gtr III
|  E Q  Q  Q.       Q.    H     +E
|---------------|--------17----(17)-|
|-------3-------|-------------------|
|----4-----4----|-------------------|
|---------------|-------------------|
|---------------|-------------------|
|--3------------|-------------------|


 Interlude
  B                A               G
  Gtr III
   W                W               S  S  H      +E   E  E    +W
|-17-------------|-15------------|-------------------------|-----------------|
|----------------|---------------|-19-17-15-----(15)----15-|-(15)------------|
|----------------|---------------|-------------------16----|-----------------|
|----------------|---------------|-------------------------|-----------------|
|----------------|---------------|-------------------------|-----------------|
|----------------|---------------|-------------------------|-----------------|
|
| Gtr II
|  Q.   Q  E E E    E Q  Q  Q.      E     Q  Q    E   E  E     E  Q  Q  E Q
|-------2--------|-------0-------|-------------------------|-----------------|
|----------3-----|----2-----2----|-----------3-------------|---------3-------|
|--------------4-|---------------|--------4-------4------4-|------4-----4----|
|----------------|---------------|-------------------------|-----------------|
|--2---------2---|--0------------|-------------------------|-----------------|
|----------------|---------------|--3-----------------3----|---3----------3--|


                                                               H=H
  B                A                G
   W                W                S  S  H       +E   E  E    +W
|-17-------------|-15-------------|--------------------------|---------|
|----------------|----------------|-19-17-15------(15)----15-|-(15)----|
|----------------|----------------|--------------------16----|---------|
|----------------|----------------|--------------------------|---------|
|----------------|----------------|--------------------------|---------|
|----------------|----------------|--------------------------|---------|
|
|  Q.   Q  E E E    E Q  Q  E E E    E     E E Q    E   E  E    +W
|-------2--------|-------0------0-|------------5-----------5-|--(5)----|
|----------3-----|----2-----2-----|----------3------3--------|---------|
|--------------4-|----------------|--------4-----------------|---------|
|----------------|----------------|--------------------------|---------|
|--2---------2---|--0---------0---|--------------------------|---------|
|----------------|----------------|--3------------------3----|---------|


   Breakdown
    Q=100
    Bm
    Gtr IV
    E S S S S S S S S S S S S S S
||--------------------------------|
||o-7-7-7-7-7-7-7-7-7-7-7-7-7-7-7-|
||--7-7-7-7-7-7-7-7-7-7-7-7-7-7-7-|
||--0-0-0-0-0-0-0-0-0-0-0-0-0-0-0-|
||o-x-x-x-x-x-x-x-x-x-x-x-x-x-x-x-|
||--7-7-7-7-7-7-7-7-7-7-7-7-7-7-7-|
|
|   Gtr V
|   E S S S S S S S S S S S S S S
||--------------------------------|
||o-7-7-7-7-7-7-7-7-7-7-7-7-7-7-7-|
||--7-7-7-7-7-7-7-7-7-7-7-7-7-7-7-|
||--0-0-0-0-0-0-0-0-0-0-0-0-0-0-0-|
||o-x-x-x-x-x-x-x-x-x-x-x-x-x-x-x-|
||--7-7-7-7-7-7-7-7-7-7-7-7-7-7-7-|


  A6sus4                          Gsus2
  E S S S S S S S S S S S S S S   E E E E E E E E  3x
|-------------------------------|------------------||
|-7-7-7-7-7-7-7-7-7-7-7-7-7-7-7-|-----------------o||
|-9-9-9-9-9-9-9-9-9-9-9-9-9-9-9-|-2-2-x-2-2-x-2-2--||
|-0-0-0-0-0-0-0-0-0-0-0-0-0-0-0-|-0-0-x-0-0-x-0-0--||
|-0-0-0-0-0-0-0-0-0-0-0-0-0-0-0-|-x-x-x-x-x-x-x-x-o||
|-x-x-x-x-x-x-x-x-x-x-x-x-x-x-x-|-3-3-x-3-3-x-3-3--||
|
| E S S S S S S S S S S S S S S   E E E E E E E E  3x
|-------------------------------|------------------||
|-7-7-7-7-7-7-7-7-7-7-7-7-7-7-7-|-----------------o||
|-9-9-9-9-9-9-9-9-9-9-9-9-9-9-9-|-2-2-x-2-2-x-2-2--||
|-0-0-0-0-0-0-0-0-0-0-0-0-0-0-0-|-0-0-x-0-0-x-0-0--||
|-0-0-0-0-0-0-0-0-0-0-0-0-0-0-0-|-x-x-x-x-x-x-x-x-o||
|-x-x-x-x-x-x-x-x-x-x-x-x-x-x-x-|-3-3-x-3-3-x-3-3--||


  Bm                              A6sus4
  E S S S S S S S S S S S S S S   E S S S S S S S S S S S S S S
|-------------------------------|-------------------------------|
|-7-7-7-7-7-7-7-7-7-7-7-7-7-7-7-|-7-7-7-7-7-7-7-7-7-7-7-7-7-7-7-|
|-7-7-7-7-7-7-7-7-7-7-7-7-7-7-7-|-9-9-9-9-9-9-9-9-9-9-9-9-9-9-9-|
|-0-0-0-0-0-0-0-0-0-0-0-0-0-0-0-|-0-0-0-0-0-0-0-0-0-0-0-0-0-0-0-|
|-x-x-x-x-x-x-x-x-x-x-x-x-x-x-x-|-0-0-0-0-0-0-0-0-0-0-0-0-0-0-0-|
|-7-7-7-7-7-7-7-7-7-7-7-7-7-7-7-|-x-x-x-x-x-x-x-x-x-x-x-x-x-x-x-|
|
| E S S S S S S S S S S S S S S   E S S S S S S S S S S S S S S
|-------------------------------|-------------------------------|
|-7-7-7-7-7-7-7-7-7-7-7-7-7-7-7-|-7-7-7-7-7-7-7-7-7-7-7-7-7-7-7-|
|-7-7-7-7-7-7-7-7-7-7-7-7-7-7-7-|-9-9-9-9-9-9-9-9-9-9-9-9-9-9-9-|
|-0-0-0-0-0-0-0-0-0-0-0-0-0-0-0-|-0-0-0-0-0-0-0-0-0-0-0-0-0-0-0-|
|-x-x-x-x-x-x-x-x-x-x-x-x-x-x-x-|-0-0-0-0-0-0-0-0-0-0-0-0-0-0-0-|
|-7-7-7-7-7-7-7-7-7-7-7-7-7-7-7-|-x-x-x-x-x-x-x-x-x-x-x-x-x-x-x-|


  Gsus2
  E E E E E E E e   E E E E E E E E
|-----------------|-----------------|
|-----------------|-----------------|
|-2-2-x-2-2-x-2-2-|-2-2-x-2-2-x-2-2-|
|-0-0-x-0-0-x-0-0-|-0-0-x-0-0-x-0-0-|
|-x-x-x-x-x-x-x-x-|-x-x-x-x-x-x-x-x-|
|-3-3-x-3-3-x-3-3-|-3-3-x-3-3-x-3-3-|
|
| E E E E E E E e   E E E E E E E E
|-----------------|-----------------|
|-----------------|-----------------|
|-2-2-x-2-2-x-2-2-|-2-2-x-2-2-x-2-2-|
|-0-0-x-0-0-x-0-0-|-0-0-x-0-0-x-0-0-|
|-x-x-x-x-x-x-x-x-|-x-x-x-x-x-x-x-x-|
|-3-3-x-3-3-x-3-3-|-3-3-x-3-3-x-3-3-|


   Chorus
    Q=95
    N.C.
     E  S  S  S  S  E  S  S  S  S  S  S  E   E S S S S E S S S S S S E   3x
||-----------------------------------------|-----------------------------||
||o----------------------------------------|----------------------------o||
||--14-14-14-14-14-12-12-12-12-12-11s12-11-|-7-7-7-7-7-6-6-6-6-6-6s4-4---||
||---x--x--x--x--x--x--x--x--x--x--xs=x--x-|-x-x-x-x-x-x-x-x-x-x-xsx-x---||
||o-12-12-12-12-12-10-10-10-10-10--9s10--9-|-5-5-5-5-5-4-4-4-4-4-4s2-2--o||
||-----------------------------------------|-----------------------------||
|
|    E  S  S  S  S  E  S  S  S  S  S  S  E   E S S S S E S S S S S S E   3x
||-----------------------------------------|-----------------------------||
||o----------------------------------------|----------------------------o||
||--14-14-14-14-14-12-12-12-12-12-11s12-11-|-7-7-7-7-7-6-6-6-6-6-6s4-4---||
||---x--x--x--x--x--x--x--x--x--x--xs=x--x-|-x-x-x-x-x-x-x-x-x-x-xsx-x---||
||o-12-12-12-12-12-10-10-10-10-10--9s10--9-|-5-5-5-5-5-4-4-4-4-4-4s2-2--o||
||-----------------------------------------|-----------------------------||


  N.C.                                     Bm
                                           >
   E  S  S  S  S  E  S  S  S  S  S  S  E   W          +W           +W
|----------------------------------------|----------|------------|--------*|
|----------------------------------------|----------|------------|--------*|
|-14-14-14-14-14-12-12-12-12-12-11s12-11-|----------|------------|--------*|
|--x--x--x--x--x--x--x--x--x--x--xs=x--x-|----------|------------|--------*|
|-12-12-12-12-12-10-10-10-10-10--9s10--9-|-2--------|-(2)--------|-(2)----*|
|----------------------------------------|----------|------------|--------*|
|
|                                          >
|  E  S  S  S  S  E  S  S  S  S  S  S  E   W          +W           +W
|----------------------------------------|----------|------------|--------*|
|----------------------------------------|----------|------------|--------*|
|-14-14-14-14-14-12-12-12-12-12-11s12-11-|-7--------|-(7)--------|-(7)----*|
|--x--x--x--x--x--x--x--x--x--x--xs=x--x-|-0--------|-(0)--------|-(0)----*|
|-12-12-12-12-12-10-10-10-10-10--9s10--9-|-x--------|-(x)--------|-(x)----*|
|----------------------------------------|-7--------|-(7)--------|-(7)----*|



Duration Legend
---------------
W - whole; H - half; Q - quarter; E - 8th; S - 16th; T - 32nd; X - 64th; a - acciaccatura
+ - note tied to previous; . - note dotted; .. - note double dotted
Uncapitalized letters represent notes that are staccato (1/2 duration)
Irregular groupings are notated above the duration line
Duration letters will always appear directly above the note/fret number it represents the
duration for.  Duration letters with no fret number below them represent rests.  Multi-
bar rests are notated in the form Wxn, where n is the number of bars to rest for.  Low
melody durations appear below the staff

Tablature Legend
----------------
 h   - hammer-on
 p   - pull-off
 b   - bend
 pb  - pre-bend
 r   - bend release (if no number after the r, then release immediately)
 /\  - slide into or out of (from/to "nowhere")
 s   - legato slide
 S   - shift slide
<n> - natural harmonic
[n]  - artificial harmonic
n(n) - tapped harmonic
 ~   - vibrato
 tr  - trill
 T   - tap
 TP  - trem. picking
 PM  - palm muting
\n/  - tremolo bar dip; n = amount to dip
 \n  - tremolo bar down
 n/  - tremolo bar up
/n\  - tremolo bar inverted dip
 =   - hold bend; also acts as connecting device for hammers/pulls
 <> - volume swell (louder/softer)
 x   - on rhythm slash represents muted slash
 o   - on rhythm slash represents single note slash

Misc Legend
-----------
 |  - bar
||  - double bar
||o - repeat start
o|| - repeat end
*|  - double bar (ending)
 :  - bar (freetime)
 $  - Segno
 &  - Coda
Tempo markers - <E/E./Q/Q./H/H.> = BPM(8/16=s8/s16), where s8 = swing 8ths, s16 = swing 16ths


*** GuitarCats.com ***