Tabs by Artist
0-9 A B C D E F G H I J K L M N O P Q R S T U V W X Y Z

ARCARSENAL

As recorded by At The Drive-In

(From the 2000 Album RELATIONSHIP OF COMMAND)

Tablature (Tab) for Guitar
Transcribed by Eoin Watson (watsy@nme.com)
Words and Music by At The Drive-In


Em

0 7 5 0 x x
G5

3 5 0 0 x x
A7sus4

5 7 0 0 x x
Gmaj7/B

7 9 0 0 x x
D

x 5 x 7 x x
E

x 7 x 9 x x
G

x 10 x 12 x x
Gsus4

x 10 10 12 x x



Gtr I (E A D G B E) - 'Omar'

Gtr II (E A D G B E) - 'Jim'

Gtr III (E A D G B E) - 'Piano'

Gtr IV (E A D G B E) - 'Omar Muted'

Gtr V (E A D G B E) - 'Jim Muted'


 Intro
  Q=130
 4/4
  Gtr II
  W          W          W          H.      S  S S  S
|----------|----------|----------|-------------------|
|----------|----------|----------|-------------------|
|----------|----------|----------|-------------------|
|----------|----------|----------|-------------------|
|----------|----------|----------|---------9h10p9h10-|
|----------|----------|----------|-------------------|


    Gtr I
     E  E E  E E  E  E E     E   E E  E E  E  E    E
||----------15-0---------|-----------15-0---------------|
||o-15-14-0------15-17-0-|--15--14-0------15-17----0----|
||-----------------------|------------------------------|
||-----------------------|------------------------------|
||o----------------------|------------------------------|
||-----------------------|------------------------------|
|
|   Gtr II
|    W                      +H.               S  S S  S
||-----------------------|------------------------------|
||o----------------------|------------------------------|
||-----------------------|------------------------------|
||-----------------------|------------------------------|
||o-12-------------------|-(12)---------------9h10p9h10-|
||--10-------------------|-(10)-------------------------|


                         1.
   E  E E  E E  E  E E    E   E E  E E  E  E    E
|---------15-0---------|----------15-0-----------------||
|-15-14-0------15-17-0-|-15--14-0------15-17----0-----o||
|----------------------|-------------------------------||
|----------------------|-------------------------------||
|----------------------|------------------------------o||
|----------------------|-------------------------------||
|
|  W                     +H.               S  S S  S
|----------------------|-------------------------------||
|----------------------|------------------------------o||
|----------------------|-------------------------------||
|--9-------------------|-(9)---------------------------||
|--7-------------------|-(7)---------------9h10p9h10--o||
|--0-------------------|-(0)---------------------------||


  2.
                          Gtr I
   E   E E  E E  E  E E    E   E E  E  E  E  E E
|----------15-0---------|----------15--0---------|
|-15--14-0------15-17-0-|-15--14-0-------15-17-0-|
|-----------------------|------------------------|
|-----------------------|------------------------|
|-----------------------|------------------------|
|-----------------------|------------------------|
|
|                         Gtr II
|  W                       Q.       Q.       Q
|-----------------------|------------------------|
|-----------------------|-12-------10------------|
|-----------------------|-------------------12---|
|-(9)-------------------|------------------------|
|-(7)-------------------|------------------------|
|-(0)-------------------|------------------------|


    E   E  E  E   E   E  E E    E   E E  E  E  E  E E
|------------15---0----------|----------15--0----------|
|--15--14--0---------15-17-0-|-15--14-0-------15-17-0--|
|----------------------------|-------------------------|
|----------------------------|-------------------------|
|----------------------------|-------------------------|
|----------------------------|-------------------------|
|
|  +E   Q.       +H             Q.       Q.       Q
|----------------------------|-------------------------|
|------10-------(10)---------|-12-------10-------------|
|-(12)-----------------------|-------------------12----|
|----------------------------|-------------------------|
|----------------------------|-------------------------|
|----------------------------|-------------------------|


    E   E E  E E  E  E E    E   E E  E  E  E  E E     E   E E  E E  E  E E
|-----------15-0---------|----------15--0---------|-----------15-0---------|
|--15--14-0------15-17-0-|-15--14-0-------15-17-0-|--15--14-0------15-17-0-|
|------------------------|------------------------|------------------------|
|------------------------|------------------------|------------------------|
|------------------------|------------------------|------------------------|
|------------------------|------------------------|------------------------|
|
|   W                       Q.       Q.       Q       W
|--10--------------------|------------------------|------------------------|
|------------------------|-12-------10------------|--10--------------------|
|-(12)-------------------|-------------------12---|-(12)-------------------|
|------------------------|------------------------|------------------------|
|------------------------|------------------------|------------------------|
|------------------------|------------------------|------------------------|


   E   E E  E  E  E  E E     E   E E  E E  Q.
|----------15--0---------|-----------15-0-------||
|-15--14-0-------15-17-0-|--15--14-0------15----||
|------------------------|----------------------||
|------------------------|----------------------||
|------------------------|----------------------||
|------------------------|----------------------||
|
|                            ~~~~~~~~~~~~~~~~~~~~~
|  Q.       Q.       Q       W
|------------------------|--10------------------||
|-12-------10------------|----------------------||
|-------------------12---|-(12)-----------------||
|------------------------|----------------------||
|------------------------|----------------------||
|------------------------|----------------------||


   +H.       Q       H     E.   S  Q
|----------------|---------------------|
|-(15)------<5>--|------------<12>-0---|
|-----------<5>--|------------<12>-0---|
|-----------<5>--|------------<12>-0---|
|----------------|---------------------|
|----------------|---------------------|
|
|~~~~~~~~~~~~~~~~~~~~~~~
|  +W               +W
|-(10)-----------|-(10)----------------|
|----------------|---------------------|
|----------------|---------------------|
|----------------|---------------------|
|----------------|---------------------|
|----------------|---------------------|


    Em
   4/4
    Gtr II         Gtr V               Gtr II
     S  E  E  E  S S S S S S S S S      S  E  E  E  S  S E. Q
     |  |  |  |  | | | | | | | | |      |  |  |  |  |  |
     /  /  /  /  / x x x x x x x x      /  /  /  /  /  /

    Gtr I          Gtr IV              Gtr I
     S  E  E  E  S S S S S S S S S  3x  S  E  E  E  S  S E. E   E
||---0--0--0--0--0-x-x-x-x-x-x-x-x--||--0--0--0--0--0--0----------|
||o-17-17-17-17-17-x-x-x-x-x-x-x-x-o||-17-17-17-17-17-17------/12-|
||---0--0--0--0--0-x-x-x-x-x-x-x-x--||--0--0--0--0--0--0----------|
||--17-17-17-17-17-x-x-x-x-x-x-x-x--||-17-17-17-17-17-17----------|
||o--------------------------------o||----------------------------|
||----------------------------------||----------------------------|


 Verse
                                      $
  Em                                  A7sus4        G5
  Gtr II
   S  S S E S  S  S S E S  S S  S S    S S S E    S  S S S E    S S S  S S
   |  | | | |  |  | | | |  | |  | |    | | | |    |  | | | |    | | |  | |
   /  / / / /  /  / / / /  / /  / /    / / / /    /  / / / /    / / /  / /

  Gtr I
   Q.          Q.          E    E      Q        E    Q        E   E    E
|-----------------------------------|----------10---10---------------------|
|-----------------------------------|-----------0----0-------12---0---12---|
|-14----------------------12---11---|-11------------12-------12---0--------|
|-------------14--------------------|-12-----------------------------------|
|-----------------------------------|--------------------------------------|
|-----------------------------------|--------------------------------------|


  Em                                  A7sus4        Gmaj7/B
   S  S S E S  S  S S E S  S S  S S    S S S E    S  S S S E    S S S  S S
   |  | | | |  |  | | | |  | |  | |    | | | |    |  | | | |    | | |  | |
   /  / / / /  /  / / / /  / /  / /    / / / /    /  / / / /    / / /  / /

   Q.          Q.          E    E      Q        E    Q        E   E    E
|-----------------------------------|----------10---------------------------|
|-----------------------------------|-----------0----0-------12---0---12----|
|-14----------------------12---11---|-11------------12------------0---------|
|-------------14--------------------|-12------------------------------------|
|-----------------------------------|---------------------------------------|
|-----------------------------------|---------------------------------------|


  Em                                  A7sus4      G5
   S  S S E S  S  S S E S  S S  S S    S  S S E S  S S S E    S S S  S S
   |  | | | |  |  | | | |  | |  | |    |  | | | |  | | | |    | | |  | |
   /  / / / /  /  / / / /  / /  / /    /  / / / /  / / / /    / / /  / /

   Q.          Q.          E    E      Q.          Q        Q        E
|-----------------------------------|-10----------12---------------------|
|-----------------------------------|--0----------------------------12---|
|-14----------------------12---11---|-11-------------------12------------|
|-------------14--------------------|------------------------------------|
|-----------------------------------|------------------------------------|
|-----------------------------------|------------------------------------|


                                                                To Coda
  Em                                  A7sus4      Gmaj7/B
   S  S S E S  S  S S E S  S S  S S    S  S S E S  S S S E     S S S S S
   |  | | | |  |  | | | |  | |  | |    |  | | | |  | | | |     | | | | |
   /  / / / /  /  / / / /  / /  / /    /  / / / /  / / / /     / / / / /

   Q.          Q.          E    E      Q.          Q        Q.
|-----------------------------------|-10------------------------------------|
|-----------------------------------|--0-----------0-------12---------------|
|-14----------------------12---11---|-11----------12------------------------|
|-------------14--------------------|---------------------------------------|
|-----------------------------------|---------------------------------------|
|-----------------------------------|---------------------------------------|


   Break
                                                        D.S. al Coda
    Em
                   Gtr V               Gtr II
     S  E  E  E  S S S S S S S S S      S  E  E  E  S  S E. Q     W
     |  |  |  |  | | | | | | | | |      |  |  |  |  |  |
     /  /  /  /  / x x x x x x x x      /  /  /  /  /  /

                   Gtr IV              Gtr I
     S  E  E  E  S S S S S S S S S  3x  S  E  E  E  S  S E. Q     W
||---0--0--0--0--0-x-x-x-x-x-x-x-x--||--0--0--0--0--0--0-------||-------||
||o-17-17-17-17-17-x-x-x-x-x-x-x-x-o||-17-17-17-17-17-17-------||-------||
||---0--0--0--0--0-x-x-x-x-x-x-x-x--||--0--0--0--0--0--0-------||-------||
||--17-17-17-17-17-x-x-x-x-x-x-x-x--||-17-17-17-17-17-17-------||-------||
||o--------------------------------o||-------------------------||-------||
||----------------------------------||-------------------------||-------||


    &
    Em
    Gtr II         Gtr V               Gtr II
     S  E  E  E  S S S S S S S S S      S  E  E  E  S  S E.     Q
     |  |  |  |  | | | | | | | | |      |  |  |  |  |  |
     /  /  /  /  / x x x x x x x x      /  /  /  /  /  /

    Gtr I          Gtr IV              Gtr I
     S  E  E  E  S S S S S S S S S  3x  S  E  E  E  S  S S  S S S  S E
||---0--0--0--0--0-x-x-x-x-x-x-x-x--||--0--0--0--0--0--0---------------|
||o-17-17-17-17-17-x-x-x-x-x-x-x-x-o||-17-17-17-17-17-17---------------|
||---0--0--0--0--0-x-x-x-x-x-x-x-x--||--0--0--0--0--0--0---------------|
||--17-17-17-17-17-x-x-x-x-x-x-x-x--||-17-17-17-17-17-17---------------|
||o--------------------------------o||----------------------9-9-9-10-9-|
||----------------------------------||---------------------------------|


   Bridge Part 1
    D
    Gtr II
     S  S S  E  S  S  S S  E  S  S  S  S  S
     |  | |  |  |  |  | |  |  |  |  |  |  |
     /  / /  /  /  /  / /  /  /  /  /  /  /

    Gtr I
     E.      E.    E.      E.    S  S  S  S
||----------10------------------------------|
||o---------------10------------------------|
||------------------------------------------|
||--12--------------------12----12-12-12-12-|
||o-----------------------------12-12-12-12-|
||--10--------------------------------------|


   S  S S  E  S  S  S S  E  S S  S S S
   |  | |  |  |  |  | |  |  | |  | | |
   /  / /  /  /  /  / /  /  / /  / / /

   E.      E.    E.      E.   S  S E
|--------------------------------------|
|---------------12---------------------|
|-----------------------12-------------|
|-12------12---------------------------|
|-----------------------------9-10-9---|
|-10-----------------------------------|


  E                                 G
  S S S S S S S S S S S S S S S S   S S S S S S S S S S S S S  S S S
  | | | | | | | | | | | | | | | |   | | | | | | | | | | | | |  | | |
  / / / / / / / / / / / / / / / /   / / / / / / / / / / / / /  / / /

  S S S E   S S S S E   S S S S S   S S S E   S S S S E   S S  S E    4x
|---------------------------------|-----------------------------------||
|---------------------------------|----------------------------------o||
|-9-9-9-9---9-9-9-9-9---9-9-9-9-9-|-9-9-9-9---9-9-9-9-9---------------||
|---------------------------------|-----------------------------------||
|-7-7-7-7---7-7-7-7-7---7-7-7-7-7-|-7-7-7-7---7-7-7-7-7---9-9-10-9---o||
|-0-0-0-0---0-0-0-0-0---0-0-0-0-0-|-0-0-0-0---0-0-0-0-0---0-0--0-0----||


 Bridge Part 2
  Gtrs I, II
  S S S  S  S  S S S S  S  S  S S S  S  S
|-----------------------------------------|
|-----------------------------------------|
|-----------------------------------------|
|-----------------------------------------|
|-----------------------------------------|
|-0-0-0-17-17-17-0-0-0-17-17-17-0-0-17-17-|


  S S S  S  S  S S S S  S  S  S S S  S  S
|-----------------------------------------|
|-----------------------------------------|
|-----------------------------------------|
|-----------------------------------------|
|-----------------------------------------|
|-0-0-0-15-15-15-0-0-0-15-15-15-0-0-15-15-|


  S S S  S  S  S S S S  S  S  S S S  S  S
|-----------------------------------------|
|-----------------------------------------|
|-----------------------------------------|
|-----------------------------------------|
|-----------------------------------------|
|-0-0-0-14-14-14-0-0-0-14-14-14-0-0-14-14-|


  S S S  S  S  S S S S  S  S  S S S  S  S
|-----------------------------------------|
|-----------------------------------------|
|-----------------------------------------|
|-----------------------------------------|
|-----------------------------------------|
|-0-0-0-12-12-12-0-0-0-12-12-12-0-0-12-12-|


   Bridge Part 3
    Gtr II
      S  S   S  S  S  S   S  S  S  S   S  S   S  S  S  S
      |  |   |  |  |  |   |  |  |  |   |  |   |  |  |  |
      x  x   x  x  x  x   x  x  x  x   x  x   x  x  x  x

    Gtr I
      E      E     E      E     E      E      E     E
||-----------------------15-----0------------------------|
||o--15-----14-----0------------------15-----17-----0----|
||----------------------(12)-----------------------------|
||--(12)---(11)----------------(2)---(12)---(14)---------|
||o---------------(2)------------------------------(2)---|
||-------------------------------------------------------|
|
|   Gtr III
|     W
||----2--------------------------------------------------|
||o---3--------------------------------------------------|
||----2--------------------------------------------------|
||----4--------------------------------------------------|
||o---5--------------------------------------------------|
||-------------------------------------------------------|


    S  S   S  S  S  S   S  S  S  S   S  S   S  S  S  S
    |  |   |  |  |  |   |  |  |  |   |  |   |  |  |  |
    x  x   x  x  x  x   x  x  x  x   x  x   x  x  x  x

    E      E     E      E     E      E      E     E
|----------------------15-----0------------------------|
|--15-----14-----0------------------15-----17-----0----|
|---------------------(12)-----------------------------|
|-(12)---(11)----------------(2)---(12)---(14)---------|
|---------------(2)------------------------------(2)---|
|------------------------------------------------------|
|
|   W
|---0--------------------------------------------------|
|---3--------------------------------------------------|
|---0--------------------------------------------------|
|---2--------------------------------------------------|
|---0--------------------------------------------------|
|------------------------------------------------------|


  Gtr II
    S  S   S  S  S  S   S  S  S  S   S  S   S  S  S  S
    |  |   |  |  |  |   |  |  |  |   |  |   |  |  |  |
    x  x   x  x  x  x   x  x  x  x   x  x   x  x  x  x

  Gtr I
    E      E     E      E     E      E      E     E
|----------------------15-----0------------------------|
|--15-----14-----0------------------15-----17-----0----|
|---------------------(12)-----------------------------|
|-(12)---(11)----------------(2)---(12)---(14)---------|
|---------------(2)------------------------------(2)---|
|------------------------------------------------------|
|
| Gtr III
|   H                         H
|------------------------------------------------------|
|-----------------------------0------------------------|
|---0-------------------------0------------------------|
|---2-------------------------2------------------------|
|---2--------------------------------------------------|
|---0------------0------------0-------------0----------|
    Q            Q            Q             Q


    S  S   S  S  S  S   S  S  S  S   S  S   S  S  S  S
    |  |   |  |  |  |   |  |  |  |   |  |   |  |  |  |
    x  x   x  x  x  x   x  x  x  x   x  x   x  x  x  x

    E      E     E      E     E      E      E     E
|----------------------15-----0-------------------------||
|--15-----14-----0------------------15-----17-----0----o||
|---------------------(12)------------------------------||
|-(12)---(11)----------------(2)---(12)---(14)----------||
|---------------(2)------------------------------(2)---o||
|-------------------------------------------------------||
|
|   H                         H
|-----------------------------0-------------------------||
|---3-------------------------0------------------------o||
|---4-------------------------0-------------------------||
|---5---------------------------------------------------||
|------------------------------------------------------o||
|---0------------0------------0-------------0-----------||
    Q            Q            Q             Q


  Gtr II
    S  S   S  S  S  S   S  S  S  S   S  S   S  S  S  S
    |  |   |  |  |  |   |  |  |  |   |  |   |  |  |  |
    x  x   x  x  x  x   x  x  x  x   x  x   x  x  x  x

  Gtr I
    E      E     E      E     E      E      E     E
|----------------------15-----0------------------------|
|--15-----14-----0------------------15-----17-----0----|
|---------------------(12)-----------------------------|
|-(12)---(11)----------------(2)---(12)---(14)---------|
|---------------(2)------------------------------(2)---|
|------------------------------------------------------|
|
| Gtr III
|   W
|---2--------------------------------------------------|
|---3--------------------------------------------------|
|---2--------------------------------------------------|
|---4--------------------------------------------------|
|---5--------------------------------------------------|
|------------------------------------------------------|


    S  S   S  S  S  S   S  S  S  S   S  S   S  S  S  S
    |  |   |  |  |  |   |  |  |  |   |  |   |  |  |  |
    x  x   x  x  x  x   x  x  x  x   x  x   x  x  x  x

    E      E     E      E     E      E      E     E
|----------------------15-----0------------------------||
|--15-----14-----0------------------15-----17-----0----||
|---------------------(12)-----------------------------||
|-(12)---(11)----------------(2)---(12)---(14)---------||
|---------------(2)------------------------------(2)---||
|------------------------------------------------------||
|
|   W
|---0--------------------------------------------------||
|---3--------------------------------------------------||
|---0--------------------------------------------------||
|---2--------------------------------------------------||
|---0--------------------------------------------------||
|------------------------------------------------------||


   Outro
    Em
    Gtr II         Gtr V
     S  E  E  E  S  S  S S  S  S  S S  S
     |  |  |  |  |  |  | |  |  |  | |  |
     /  /  /  /  /  x  x x  x  x  x x  x

    Gtr I                GtGtr I    GtGtr
     S  E  E  E  S  S  S S  S  S  S S  S
||---0--0--0--0--0--0--0-x--0--0--0-x--0-|
||o-17-17-17-17-17-17-17-x-17-17-17-x-17-|
||---0--0--0--0--0--0--0-x--0--0--0-x--0-|
||--17-17-17-17-17-17-17-x-17-17-17-x-17-|
||o--------------------------------------|
||---------------------------------------|


  Gtr II         Gtr V
   S  E  E  E  S  S  S S  S  S  S S  S
   |  |  |  |  |  |  | |  |  |  | |  |
   /  /  /  /  /  x  x x  x  x  x x  x

 I                     GtGtr I    GtGtr I
   S  E  E  E  S  S  S S  S  S  S S  S
|--0--0--0--0--0--0--0-x--0--0--0-x--0--||
|-17-17-17-17-17-17-17-x-17-17-17-x-17-o||
|--0--0--0--0--0--0--0-x--0--0--0-x--0--||
|-17-17-17-17-17-17-17-x-17-17-17-x-17--||
|--------------------------------------o||
|---------------------------------------||


    Gtr II         Gtr V               Gtr II
     S  E  E  E  S S S S S S S S S      S  E  E  E  S  S E. Q     E E H.
     |  |  |  |  | | | | | | | | |      |  |  |  |  |  |          |
     /  /  /  /  / x x x x x x x x      /  /  /  /  /  /          /

                   Gtr IV              Gtr I
     S  E  E  E  S S S S S S S S S  3x  S  E  E  E  S  S E. Q     E E H.
||---0--0--0--0--0-x-x-x-x-x-x-x-x--||--0--0--0--0--0--0-------|--0---------*|
||o-17-17-17-17-17-x-x-x-x-x-x-x-x-o||-17-17-17-17-17-17-------|-17---------*|
||---0--0--0--0--0-x-x-x-x-x-x-x-x--||--0--0--0--0--0--0-------|--0---------*|
||--17-17-17-17-17-x-x-x-x-x-x-x-x--||-17-17-17-17-17-17-------|-17---------*|
||o--------------------------------o||-------------------------|------------*|
||----------------------------------||-------------------------|------------*|



Duration Legend
---------------
W - whole; H - half; Q - quarter; E - 8th; S - 16th; T - 32nd; X - 64th; a - acciaccatura
+ - note tied to previous; . - note dotted; .. - note double dotted
Uncapitalized letters represent notes that are staccato (1/2 duration)
Irregular groupings are notated above the duration line
Duration letters will always appear directly above the note/fret number it represents the
duration for.  Duration letters with no fret number below them represent rests.  Multi-
bar rests are notated in the form Wxn, where n is the number of bars to rest for.  Low
melody durations appear below the staff

Tablature Legend
----------------
 h   - hammer-on
 p   - pull-off
 b   - bend
 pb  - pre-bend
 r   - bend release (if no number after the r, then release immediately)
 /\  - slide into or out of (from/to "nowhere")
 s   - legato slide
 S   - shift slide
<n> - natural harmonic
[n]  - artificial harmonic
n(n) - tapped harmonic
 ~   - vibrato
 tr  - trill
 T   - tap
 TP  - trem. picking
 PM  - palm muting
\n/  - tremolo bar dip; n = amount to dip
 \n  - tremolo bar down
 n/  - tremolo bar up
/n\  - tremolo bar inverted dip
 =   - hold bend; also acts as connecting device for hammers/pulls
 <> - volume swell (louder/softer)
 x   - on rhythm slash represents muted slash
 o   - on rhythm slash represents single note slash

Misc Legend
-----------
 |  - bar
||  - double bar
||o - repeat start
o|| - repeat end
*|  - double bar (ending)
 :  - bar (freetime)
 $  - Segno
 &  - Coda
Tempo markers - <E/E./Q/Q./H/H.> = BPM(8/16=s8/s16), where s8 = swing 8ths, s16 = swing 16ths


*** GuitarCats.com ***