Tabs by Artist
0-9 A B C D E F G H I J K L M N O P Q R S T U V W X Y Z

ENFILADE

As recorded by At The Drive-In

(From the 2000 Album RELATIONSHIP OF COMMAND)

Tablature (Tab) for Guitar
Transcribed by Eoin Watson (watsy@nme.com)
Words and Music by At The Drive-In


Bsus4

7 9 9 x 0 0
G6

3 5 5 0 0 0
E

0 2 2 1 0 0
B5

x 2 4 4 x x



Gtr I (E A D G B E) - 'Omar'

Gtr II (E A D G B E) - 'Jim'

Gtr III (E A D G B E) - 'Untitled'


 Intro
  Q=90
 4/4
  Gtr I
  W          +W           W          W
|----------|------------|----------|------||
|----------|------------|----------|------||
|----------|------------|----------|------||
|----------|------------|----------|------||
|-2--------|-(2)--------|-5--------|-4----||
|-2--------|-(2)--------|----------|------||


 4/4
  Gtr I
   TP          TP    TP     TP    TP          TP     TP  TP   TP  TP
   W           Q.    H     +E     W           Q.    +S   Q   +S   Q
|-----------|-------19----(19)-|-----------|--------------------------|
|-19--------|-15---------------|-19--------|-15----(15)-14--(14)------|
|-----------|------------------|-----------|---------------------14---|
|-----------|------------------|-----------|--------------------------|
|-----------|------------------|-----------|--------------------------|
|-----------|------------------|-----------|--------------------------|


   Verse
    Q=90
    $
   4/4
    Gtr I
     TP
     W
||----------------------------------------------------------|
||o-19------------------------------------------------------|
||----------------------------------------------------------|
||----------------------------------------------------------|
||o---------------------------------------------------------|
||----------------------------------------------------------|
|
|   Gtr II
|    S   S   S   S   S   S   S   S   S   S   S   S   E   E
||--------------------------------------------------<7>-----|
||o-----------------------------------------------------<7>-|
||--<7>-----<7>-<7>-----<7>-<7>-----<7>-<7>-----<7>---------|
||----------------------------------------------------------|
||o-----<9>---------<9>---------<9>---------<9>-------------|
||----------------------------------------------------------|


   TP                      TP                           TP
   Q.                      H                           +E
|-------------------------19--------------------------(19)-|
|-15-------------------------------------------------------|
|----------------------------------------------------------|
|----------------------------------------------------------|
|----------------------------------------------------------|
|----------------------------------------------------------|
|
|  S   S   S   S   S   S   S   S   S   S   S   S   E    E
|-------------------------------------------------<7>------|
|------------------------------------------------------<7>-|
|-<7>-----<7>-<7>-----<7>-<7>-----<7>-<7>-----<7>----------|
|----------------------------------------------------------|
|-----<9>---------<9>---------<9>---------<9>--------------|
|----------------------------------------------------------|


  Gtr I
   TP
   W
|---------------------------------------------------------|
|-19------------------------------------------------------|
|---------------------------------------------------------|
|---------------------------------------------------------|
|---------------------------------------------------------|
|---------------------------------------------------------|
|
| Gtr II
|  S   S   S   S   S   S   S   S   S   S   S   S   E   E
|-------------------------------------------------<7>-----|
|-----------------------------------------------------<7>-|
|-<7>-----<7>-<7>-----<7>-<7>-----<7>-<7>-----<7>---------|
|---------------------------------------------------------|
|-----<9>---------<9>---------<9>---------<9>-------------|
|---------------------------------------------------------|


                   To Coda
   TP      TP  TP   TP  TP
   Q.     +S   Q   +S   Q   3x
|---------------------------||
|-15-----(15)-14--(14)-----o||
|----------------------14---||
|---------------------------||
|--------------------------o||
|---------------------------||
|
|  W                        3x
|---------------------------||
|--------------------------o||
|--7b9----------------------||
|--7b9----------------------||
|--------------------------o||
|---------------------------||


 Pre-Chorus
  Gtr I
  E. E. E. E. E E   E. E. E. E. S S S S
|-----------------|---------------------|
|---------------3-|-------3-----5---0h3-|
|----1--------3---|-2--------1----3-----|
|-2-----0--4------|----1----------------|
|-----------------|---------------------|
|-----------------|---------------------|


  E. E. E. E. E E   E. E. E. E. S S S S
|-----------------|-5-------------------||
|-----------------|----4--3-------------||
|----1------------|----------1----------||
|-2-----0--4------|-------------2-----0-||
|-------------1-0-|---------------1h2---||
|-----------------|---------------------||


   Chorus
    Bsus4          G6
    Gtr II
     E  S  S  S  S  E     S  S  E     S  S  S  S
     |  |  |  |  |  |     |  |  |     |  |  |  |
     /  /  /  /  /  /     /  /  /     /  /  /  /

    Gtr I
     E  S  S  S  S  S  S  S  S  S  S  S  S  S  S
||--14-14-14-14-14-12-12-12-12-11-11-11-11--0--0-|
||o--0--0--0--0--0--0--0--0--0--0--0--0--0-10-10-|
||-----------------------------------------------|
||-----------------------------------------------|
||o----------------------------------------------|
||-----------------------------------------------|


  E
   E  S  S  S  S  E     S  S  S  S  S  S  S S
   |  |  |  |  |  |     |  |  |  |  |  |  | |
   /  /  /  /  /  /     /  /  /  /  /  /  / /

   E  S  S  S  S  S  S  S  S  S  S  S  S  E
|--0--0--0--0--0--0--0--0--0--0--0--0--0--0----|
|-12-12-12-12-12-12-12-12-12-12-12-12-12-12----|
|-14-14-14-14-14-14-14-14-13-13-13-14-14-14----|
|----------------------------------------------|
|----------------------------------------------|
|----------------------------------------------|


  1.
  Bsus4          G6
   E  S  S  S  S  E    S  S  E    S  S  S S
   |  |  |  |  |  |    |  |  |    |  |  | |
   /  /  /  /  /  /    /  /  /    /  /  / /

   E  S  S  S  S  S  S S  S  S  S S  S  S S
|-14-14-14-14-14-14-14-0-17-17-17-0-11-11-0-|
|--0--0--0--0--0--0--0-0--0--0--0-0--0--0-0-|
|-------------------------------------------|
|-------------------------------------------|
|-------------------------------------------|
|-------------------------------------------|


  E
   E  S  S  S  S  E     S  S  S  S  S  S  S S
   |  |  |  |  |  |     |  |  |  |  |  |  | |
   /  /  /  /  /  /     /  /  /  /  /  /  / /

   E  S  S  S  S  S  S  S  S  S  S  S  S  E
|--0--0--0--0--0--0--0--0--0--0--0--0--0--0----||
|-12-12-12-12-12-12-12-12-12-12-12-12-12-12---o||
|-14-14-14-14-14-14-14-14-13-13-13-14-14-14----||
|----------------------------------------------||
|---------------------------------------------o||
|----------------------------------------------||


  2.
  Bsus4          G6
  Gtr II
   E  S  S  S  S  E    S  S  E    S  S  S S
   |  |  |  |  |  |    |  |  |    |  |  | |
   /  /  /  /  /  /    /  /  /    /  /  / /

  Gtr I
   E  S  S  S  S  S  S S  S  S  S S  S  S S
|-14-14-14-14-14-14-14-0-17-17-17-0-11-11-0-|
|--0--0--0--0--0--0--0-0--0--0--0-0--0--0-0-|
|-------------------------------------------|
|-------------------------------------------|
|-------------------------------------------|
|-------------------------------------------|


  E
   E  S  S  S  S  E     S  S  S  S  S  S  S  S
   |  |  |  |  |  |     |  |  |  |  |  |  |  |
   /  /  /  /  /  /     /  /  /  /  /  /  /  /

   E  S  S  S  S  S  S  S  S  S  S  S  S  S  S
|--0--0--0--0--0--0--0--0--0--0--0--0--0--0--0-||
|-12-12-12-12-12-12-12-12-15-15-15-15-15-15-15-||
|-14-14-14-14-14-14-14-14-14-14-14-14-14-14-14-||
|----------------------------------------------||
|----------------------------------------------||
|----------------------------------------------||


   Pre-Verse
                                                        D.S. al Coda
     S   S   S   S   S   S   S   S   S   S   S   S   E   E   3x W
||--------------------------------------------------<7>------||---------||
||o-----------------------------------------------------<7>-o||---------||
||--<7>-----<7>-<7>-----<7>-<7>-----<7>-<7>-----<7>----------||-7b9-----||
||-----------------------------------------------------------||-7b9-----||
||o-----<9>---------<9>---------<9>---------<9>-------------o||---------||
||-----------------------------------------------------------||---------||


   Chorus
    &
    Bsus4          G6
    Gtr II
     E  S  S  S  S  E     S  S  E     S  S  S  S
     |  |  |  |  |  |     |  |  |     |  |  |  |
     /  /  /  /  /  /     /  /  /     /  /  /  /

    Gtr I
     E  S  S  S  S  S  S  S  S  S  S  S  S  S  S
||--14-14-14-14-14-12-12-12-12-11-11-11-11--0--0-|
||o--0--0--0--0--0--0--0--0--0--0--0--0--0-10-10-|
||-----------------------------------------------|
||-----------------------------------------------|
||o----------------------------------------------|
||-----------------------------------------------|


  E
   E  S  S  S  S  E     S  S  S  S  S  S  S S
   |  |  |  |  |  |     |  |  |  |  |  |  | |
   /  /  /  /  /  /     /  /  /  /  /  /  / /

   E  S  S  S  S  S  S  S  S  S  S  S  S  E
|--0--0--0--0--0--0--0--0--0--0--0--0--0--0----|
|-12-12-12-12-12-12-12-12-12-12-12-12-12-12----|
|-14-14-14-14-14-14-14-14-13-13-13-14-14-14----|
|----------------------------------------------|
|----------------------------------------------|
|----------------------------------------------|


  1.
  Bsus4          G6
   E  S  S  S  S  E    S  S  E    S  S  S S
   |  |  |  |  |  |    |  |  |    |  |  | |
   /  /  /  /  /  /    /  /  /    /  /  / /

   E  S  S  S  S  S  S S  S  S  S S  S  S S
|-14-14-14-14-14-14-14-0-17-17-17-0-11-11-0-|
|--0--0--0--0--0--0--0-0--0--0--0-0--0--0-0-|
|-------------------------------------------|
|-------------------------------------------|
|-------------------------------------------|
|-------------------------------------------|


  E
   E  S  S  S  S  E     S  S  S  S  S  S  S S
   |  |  |  |  |  |     |  |  |  |  |  |  | |
   /  /  /  /  /  /     /  /  /  /  /  /  / /

   E  S  S  S  S  S  S  S  S  S  S  S  S  E
|--0--0--0--0--0--0--0--0--0--0--0--0--0--0----||
|-12-12-12-12-12-12-12-12-12-12-12-12-12-12---o||
|-14-14-14-14-14-14-14-14-13-13-13-14-14-14----||
|----------------------------------------------||
|---------------------------------------------o||
|----------------------------------------------||


  2.
  Bsus4          G6
  Gtr II
   E  S  S  S  S  E    S  S  E    S  S  S S
   |  |  |  |  |  |    |  |  |    |  |  | |
   /  /  /  /  /  /    /  /  /    /  /  / /

  Gtr I
   E  S  S  S  S  S  S S  S  S  S S  S  S S
|-14-14-14-14-14-14-14-0-17-17-17-0-11-11-0-|
|--0--0--0--0--0--0--0-0--0--0--0-0--0--0-0-|
|-------------------------------------------|
|-------------------------------------------|
|-------------------------------------------|
|-------------------------------------------|


  E
   E  S  S  S  S  E     S  S  S  S  S  S  S  S
   |  |  |  |  |  |     |  |  |  |  |  |  |  |
   /  /  /  /  /  /     /  /  /  /  /  /  /  /

   E  S  S  S  S  S  S  S  S  S  S  S  S  S  S
|--0--0--0--0--0--0--0--0--0--0--0--0--0--0--0-||
|-12-12-12-12-12-12-12-12-15-15-15-15-15-15-15-||
|-14-14-14-14-14-14-14-14-14-14-14-14-14-14-14-||
|----------------------------------------------||
|----------------------------------------------||
|----------------------------------------------||


 Bridge
  Gtr I
   E.  E.  E.  E.   S  S  S  S    E. E.  E.  E.   S  S  S  S
|----------9-------------------|---------0-------------------|
|--0---0---0---0----0--0--0--0-|--0--0--10---0----0--0--0--0-|
|--9--11------11--/16-16-16-16-|--4--9------11--/14-14-14-14-|
|------------------------------|-----------------------------|
|------------------------------|-----------------------------|
|------------------------------|-----------------------------|
|
| Gtr II
|  TP      TP       TP            TP     TP       TP
|  Q.      Q.       Q             Q.     Q.       Q
|------------------------------|-----------------------------|
|-12---------------------------|-12--------------------------|
|---------14-------11----------|--------14-------11----------|
|------------------------------|-----------------------------|
|------------------------------|-----------------------------|
|------------------------------|-----------------------------|


   E.  E.  E.  E.   S  S  S  S    E.  E.  E.  E.  Q
|----------9-------------------|----------9---0------|
|--0---0---0---0----0--0--0--0-|--0---0---0--12---0--|
|--9--11------11--/16-16-16-16-|--9--11----------11--|
|------------------------------|---------------------|
|------------------------------|---------------------|
|------------------------------|---------------------|
|
|  TP      TP       TP            TP      TP      TP
|  Q.      Q.       Q             Q.      Q.      Q
|------------------------------|---------------------|
|-12---------------------------|-12------------------|
|---------14-------11----------|---------14------11--|
|------------------------------|---------------------|
|------------------------------|---------------------|
|------------------------------|---------------------|


  Gtr I
   S  S S S S S  S  S S S S S  S S S S    S  S S S S S  S  S S S S S  S S S S
|--------------------------------------|--------------------------------------|
|--------------------------------------|--------------------------------------|
|--------------------------------------|--------------------------------------|
|--9--9-9-9-9-9--9--9-7-7-7-7--7-7-7-7-|--5--5-5-5-5-5--5--5-4-4-4-4--4-4-4-4-|
|--------------------------------------|--------------------------------------|
|--------------------------------------|--------------------------------------|
|
| Gtr II
|  TP            TP            TP         TP            TP            TP
|  Q.            Q.            Q          Q.            Q.            Q
|-17------------16------------14-------|-17------------16------------14-------|
|--------------------------------------|--------------------------------------|
|--------------------------------------|--------------------------------------|
|--------------------------------------|--------------------------------------|
|--------------------------------------|--------------------------------------|
|--------------------------------------|--------------------------------------|


  Gtr I
   S  S S S S S  S  S S S S S  S S S S    S  S S S S S S S S S S S  S    S S S
|--------------------------------------|---------------------------------------|
|--------------------------------------|---------------------------------------|
|--------------------------------------|---------------------------------------|
|--------------------------------------|---------------------------------------|
|--7--7-7-7-7-7--7--7-5-5-5-5--5-5-5-5-|--4--4-4-4-4-4-4-4-4-4-4-4--4----4-4-4-|
|--------------------------------------|---------------------------------------|
|
| Gtr II
|  TP            TP            TP         TP
|  Q.            Q.            Q          H.                        Q
|-17------------16------------14-------|---------------------------------------|
|--------------------------------------|-17------------------------14----------|
|--------------------------------------|---------------------------16b18-------|
|--------------------------------------|---------------------------------------|
|--------------------------------------|---------------------------------------|
|--------------------------------------|---------------------------------------|


  Gtr I
    W           +H     H      W                              W
|-------------|-------------|----------------------------|---------|
|-------------|-------------|----------------------------|---------|
|-------------|-------------|----------------------------|---------|
|---4---------|-(4)---------|----------------------------|---------|
|---2---------|-(2)---------|----------------------------|---------|
|-------------|-------------|----------------------------|---------|
|
| Gtr II                      Gtr III
|                                                            >
|  +W            W            E.  S  S S  S  S E.  E.  E    +W
|-------------|-------------|----------9-10----9---------|---------|
|-(14)--------|-------------|-------12------12----12-----|---------|
|-(16)--------|-------------|----11-------------------11-|-(11)----|
|-------------|-------------|----------------------------|---------|
|-------------|-------------|----------------------------|---------|
|-------------|-------------|----------------------------|---------|


  W                              W
|----------------------------|--------------------------------|
|----------------------------|--------------------------------|
|----------------------------|--------------------------------|
|----------------------------|--------------------------------|
|----------------------------|--------------------------------|
|----------------------------|--------------------------------|
|
|                          >                          >
| E.  S  S S  S  S E.  E.  E    +E.  S  S S  S  S E.  E.  +E
|----------9-10----9---------|------------9-10----9-----------|
|-------12------12----12-----|---------12------12----12--(12)-|
|----11-------------------11-|-(11)-11------------------------|
|----------------------------|--------------------------------|
|----------------------------|--------------------------------|
|----------------------------|--------------------------------|


    E.  E.       E.       E.     E   E     E.       E.       E.       E.        S S    S    S
|---------------------------------------|--5--------------------------------------------------||
|---------------------------------------|-----------4--------3--------------------------------||
|-------1-------------------------------|-----------------------------1-----------------------||
|---2------------0--------4-------------|---------------------------------------2-----------0-||
|--------------------------------1---0--|-----------------------------------------1h===2------||
|---------------------------------------|-----------------------------------------------------||
|
|                                                       >
|                                          |--3---|     |---3----|  |---3----|  |----3----|
|  +E.  S   S S  S   S E.     E.    +E     e   e  e     e  e     e  e     e  e  e    e    e
|-------------9-10-----9----------------|-----------------------------------------------------||
|-(12)-----12-------12-------12----(12)-|--9---9--9-----9--9-----9--9-----9--9--9----9----9---||
|------11-------------------------------|-11--11-11----11-11----11-11----11-11-11---11---11---||
|---------------------------------------|-----------------------------------------------------||
|---------------------------------------|-----------------------------------------------------||
|---------------------------------------|-----------------------------------------------------||


   Out-Chorus
    Bsus4          G6
    Gtr II
     E  S  S  S  S  E     S  S  E     S  S  S  S
     |  |  |  |  |  |     |  |  |     |  |  |  |
     /  /  /  /  /  /     /  /  /     /  /  /  /

    Gtr I
     E  S  S  S  S  S  S  S  S  S  S  S  S  S  S
||--14-14-14-14-14-12-12-12-12-11-11-11-11--0--0-|
||o--0--0--0--0--0--0--0--0--0--0--0--0--0-10-10-|
||-----------------------------------------------|
||-----------------------------------------------|
||o----------------------------------------------|
||-----------------------------------------------|


  E
   E  S  S  S  S  E     S  S  S  S  S  S  S S
   |  |  |  |  |  |     |  |  |  |  |  |  | |
   /  /  /  /  /  /     /  /  /  /  /  /  / /

   E  S  S  S  S  S  S  S  S  S  S  S  S  E
|--0--0--0--0--0--0--0--0--0--0--0--0--0--0----|
|-12-12-12-12-12-12-12-12-12-12-12-12-12-12----|
|-14-14-14-14-14-14-14-14-13-13-13-14-14-14----|
|----------------------------------------------|
|----------------------------------------------|
|----------------------------------------------|


  Bsus4          G6
   E  S  S  S  S  E    S  S  E    S  S  S S
   |  |  |  |  |  |    |  |  |    |  |  | |
   /  /  /  /  /  /    /  /  /    /  /  / /

   E  S  S  S  S  S  S S  S  S  S S  S  S S
|-14-14-14-14-14-14-14-0-17-17-17-0-11-11-0-|
|--0--0--0--0--0--0--0-0--0--0--0-0--0--0-0-|
|-------------------------------------------|
|-------------------------------------------|
|-------------------------------------------|
|-------------------------------------------|


  E
   E  S  S  S  S  E     S  S  S  S  S  S  S S
   |  |  |  |  |  |     |  |  |  |  |  |  | |
   /  /  /  /  /  /     /  /  /  /  /  /  / /

   E  S  S  S  S  S  S  S  S  S  S  S  S  E
|--0--0--0--0--0--0--0--0--0--0--0--0--0--0---|
|-12-12-12-12-12-12-12-12-12-12-12-12-12-12---|
|-14-14-14-14-14-14-14-14-13-13-13-14-14-14---|
|---------------------------------------------|
|---------------------------------------------|
|---------------------------------------------|


  Bsus4          G6
  Gtr II
   E  S  S  S  S  E     S  S  E     S  S  S  S
   |  |  |  |  |  |     |  |  |     |  |  |  |
   /  /  /  /  /  /     /  /  /     /  /  /  /

  Gtr I
   E  S  S  S  S  S  S  S  S  S  S  S  S  S  S
|-14-14-14-14-14-12-12-12-12-11-11-11-11--0--0-|
|--0--0--0--0--0--0--0--0--0--0--0--0--0-10-10-|
|----------------------------------------------|
|----------------------------------------------|
|----------------------------------------------|
|----------------------------------------------|


  E
   E  S  S  S  S  E     S  S  S  S  S  S  S S
   |  |  |  |  |  |     |  |  |  |  |  |  | |
   /  /  /  /  /  /     /  /  /  /  /  /  / /

   E  S  S  S  S  S  S  S  S  S  S  S  S  E
|--0--0--0--0--0--0--0--0--0--0--0--0--0--0---|
|-12-12-12-12-12-12-12-12-12-12-12-12-12-12---|
|-14-14-14-14-14-14-14-14-13-13-13-14-14-14---|
|---------------------------------------------|
|---------------------------------------------|
|---------------------------------------------|


  Bsus4          G6
  Gtr II
   E  S  S  S  S  E    S  S  E    S  S  S S
   |  |  |  |  |  |    |  |  |    |  |  | |
   /  /  /  /  /  /    /  /  /    /  /  / /

  Gtr I
   E  S  S  S  S  S  S S  S  S  S S  S  S S
|-14-14-14-14-14-14-14-0-17-17-17-0-11-11-0-|
|--0--0--0--0--0--0--0-0--0--0--0-0--0--0-0-|
|-------------------------------------------|
|-------------------------------------------|
|-------------------------------------------|
|-------------------------------------------|


  1.
  E
   E  S  S  S  S  E     S  S  S  S  S  S  S S
   |  |  |  |  |  |     |  |  |  |  |  |  | |
   /  /  /  /  /  /     /  /  /  /  /  /  / /

   E  S  S  S  S  S  S  S  S  S  S  S  S  E
|--0--0--0--0--0--0--0--0--0--0--0--0--0--0----||
|-12-12-12-12-12-12-12-12-15-15-15-15-15-15---o||
|-14-14-14-14-14-14-14-14-14-14-14-14-14-14----||
|----------------------------------------------||
|---------------------------------------------o||
|----------------------------------------------||


  2.
  E                                              B5
   E  S  S  S  S  E     S  S  S  S  S  S  S  S   W
   |  |  |  |  |  |     |  |  |  |  |  |  |  |   |
   /  /  /  /  /  /     /  /  /  /  /  /  /  /   /

   E  S  S  S  S  S  S  S  S  S  S  S  S  S  S   W
|--0--0--0--0--0--0--0--0--0--0--0--0--0--0--0-|-7----*|
|-12-12-12-12-12-12-12-12-15-15-15-15-15-15-15-|-7----*|
|-14-14-14-14-14-14-14-14-14-14-14-14-14-14-14-|-7----*|
|----------------------------------------------|-9----*|
|----------------------------------------------|-9----*|
|----------------------------------------------|-7----*|



Duration Legend
---------------
W - whole; H - half; Q - quarter; E - 8th; S - 16th; T - 32nd; X - 64th; a - acciaccatura
+ - note tied to previous; . - note dotted; .. - note double dotted
Uncapitalized letters represent notes that are staccato (1/2 duration)
Irregular groupings are notated above the duration line
Duration letters will always appear directly above the note/fret number it represents the
duration for.  Duration letters with no fret number below them represent rests.  Multi-
bar rests are notated in the form Wxn, where n is the number of bars to rest for.  Low
melody durations appear below the staff

Tablature Legend
----------------
 h   - hammer-on
 p   - pull-off
 b   - bend
 pb  - pre-bend
 r   - bend release (if no number after the r, then release immediately)
 /\  - slide into or out of (from/to "nowhere")
 s   - legato slide
 S   - shift slide
<n> - natural harmonic
[n]  - artificial harmonic
n(n) - tapped harmonic
 ~   - vibrato
 tr  - trill
 T   - tap
 TP  - trem. picking
 PM  - palm muting
\n/  - tremolo bar dip; n = amount to dip
 \n  - tremolo bar down
 n/  - tremolo bar up
/n\  - tremolo bar inverted dip
 =   - hold bend; also acts as connecting device for hammers/pulls
 <> - volume swell (louder/softer)
 x   - on rhythm slash represents muted slash
 o   - on rhythm slash represents single note slash

Misc Legend
-----------
 |  - bar
||  - double bar
||o - repeat start
o|| - repeat end
*|  - double bar (ending)
 :  - bar (freetime)
 $  - Segno
 &  - Coda
Tempo markers - <E/E./Q/Q./H/H.> = BPM(8/16=s8/s16), where s8 = swing 8ths, s16 = swing 16ths


*** GuitarCats.com ***