Tabs by Artist
0-9 A B C D E F G H I J K L M N O P Q R S T U V W X Y Z

LOPSIDED

As recorded by At The Drive-in

(From the 2005 Album IN CASINO OUT)

Tablature (Tab) for Guitar
Words and Music by At The Drive-in
Arranged by At The Drive-in

Gtr I (E A D G B E) - 'Lead Guitar clean - Omar'

Gtr II (E A D G B E) - 'Rhythm Guitar clean - Jim'

Gtr III (E A D G B E) - 'Lead Guitar w/ distortion - Omar'

Gtr IV (E A D G B E) - 'Rhythm Guitar w/ distortion - Jim'

Gtr V (E A D G B E) - 'Untitled'


 Intro        Verse
  Q.=65
  N.C.         Gsus2   Bsus2
 6/8
               Gtrs I, II
  Wx4          E S S E  E  S  S E
|----------||---------------------|
|----------||o--------------------|
|----------||---------------------|
|----------||--7-7-7---11-11-11---|
|----------||o-5-5-5----9--9--9---|
|----------||--3-3-3----7--7--7---|


                                     Dsus2
   E  S  S E  E  S  S E    E  S  S E  E  S  S E
|-----------------------|-----------------------|
|-----------------------|-----------------------|
|-----------------------|-----------------------|
|-11-11-11---11-11-11---|-11-11-11---14-14-14---|
|--9--9--9----9--9--9---|--9--9--9---12-12-12---|
|--7--7--7----7--7--7---|--7--7--7---10-10-10---|


  Gsus2
                                     3/8
  E S S E E S S E   E S S E E S S E   E S S E  3x
|-----------------|-----------------|----------||
|-----------------|-----------------|---------o||
|-----------------|-----------------|----------||
|-7-7-7---7-7-7---|-7-7-7---7-7-7---|-7-7-7----||
|-5-5-5---5-5-5---|-5-5-5---5-5-5---|-5-5-5---o||
|-3-3-3---3-3-3---|-3-3-3---3-3-3---|-3-3-3----||


   Chorus
    D              G5/F#            D/A
   6/8
    Gtr I
     E  E     E     E  E     E       E  E     E     q  E
||-----------------14-------------|-10-------------------|
||o-10----------------15----------|----10----------------|
||-----11-------------------------|----------11----------|
||-----------12-------------16----|----------------12----|
||o-------------------------------|----------------------|
||--------------------------------|----------------------|
|
|   Gtr II
|    E  S  S  S  S  E  S  S  S  S    E  S  S  S  S  q  E
||--------------------------------|----------------------|
||o-------------------------------|----------------------|
||--19-19-19-19-19-19-19-19-19-19-|-14-14-14-14-14-14----|
||---x--x--x--x--x--x--x--x--x--x-|--x--x--x--x--x--x----|
||o-17-17-17-17-17-17-17-17-17-17-|-12-12-12-12-12-12----|
||--------------------------------|----------------------|


  D              G5/F#            D/A
   E  E     E     E  E     E       E  E     E     E  E     E
|----------------14-------------|-10-----------------------------||
|-10----------------15----------|----10-------------------10----o||
|----11-------------------------|----------11-------11-----------||
|----------12-------------16----|----------------12--------------||
|-------------------------------|-------------------------------o||
|-------------------------------|--------------------------------||
|
|  E  S  S  S  S  E  S  S  S  S    E  S  S  S  S  E  S  S  S  S
|-------------------------------|--------------------------------||
|-------------------------------|-------------------------------o||
|-19-19-19-19-19-19-19-19-19-19-|-14-14-14-14-14-14-14-14-14-14--||
|--x--x--x--x--x--x--x--x--x--x-|--x--x--x--x--x--x--x--x--x--x--||
|-17-17-17-17-17-17-17-17-17-17-|-12-12-12-12-12-12-12-12-12-12-o||
|-------------------------------|--------------------------------||


   Verse
    Gsus2   Bsus2                                           Dsus2
    Gtrs I, II
    E S S E  E  S  S E    E  S  S E  E  S  S E    E  S  S E  E  S  S E
||---------------------|-----------------------|-----------------------|
||o--------------------|-----------------------|-----------------------|
||---------------------|-----------------------|-----------------------|
||--7-7-7---11-11-11---|-11-11-11---11-11-11---|-11-11-11---14-14-14---|
||o-5-5-5----9--9--9---|--9--9--9----9--9--9---|--9--9--9---12-12-12---|
||--3-3-3----7--7--7---|--7--7--7----7--7--7---|--7--7--7---10-10-10---|


  Gsus2
                                     3/8
  E S S E E S S E   E S S E E S S E   E S S E  3x
|-----------------|-----------------|----------||
|-----------------|-----------------|---------o||
|-----------------|-----------------|----------||
|-7-7-7---7-7-7---|-7-7-7---7-7-7---|-7-7-7----||
|-5-5-5---5-5-5---|-5-5-5---5-5-5---|-5-5-5---o||
|-3-3-3---3-3-3---|-3-3-3---3-3-3---|-3-3-3----||


   Chorus
    D              G5/F#            D/A
   6/8
    Gtr I
     E  E     E     E  E     E       E  E     E     q  E
||-----------------14-------------|-10-------------------|
||o-10----------------15----------|----10----------------|
||-----11-------------------------|----------11----------|
||-----------12-------------16----|----------------12----|
||o-------------------------------|----------------------|
||--------------------------------|----------------------|
|
|   Gtr II
|    E  S  S  S  S  E  S  S  S  S    E  S  S  S  S  q  E
||--------------------------------|----------------------|
||o-------------------------------|----------------------|
||--19-19-19-19-19-19-19-19-19-19-|-14-14-14-14-14-14----|
||---x--x--x--x--x--x--x--x--x--x-|--x--x--x--x--x--x----|
||o-17-17-17-17-17-17-17-17-17-17-|-12-12-12-12-12-12----|
||--------------------------------|----------------------|


  D              G5/F#            D/A
   E  E     E     E  E     E       E  E     E     E  E     E     4x
|----------------14-------------|-10-----------------------------||
|-10----------------15----------|----10-------------------10----o||
|----11-------------------------|----------11-------11-----------||
|----------12-------------16----|----------------12--------------||
|-------------------------------|-------------------------------o||
|-------------------------------|--------------------------------||
|
|  E  S  S  S  S  E  S  S  S  S    E  S  S  S  S  E  S  S  S  S  4x
|-------------------------------|--------------------------------||
|-------------------------------|-------------------------------o||
|-19-19-19-19-19-19-19-19-19-19-|-14-14-14-14-14-14-14-14-14-14--||
|--x--x--x--x--x--x--x--x--x--x-|--x--x--x--x--x--x--x--x--x--x--||
|-17-17-17-17-17-17-17-17-17-17-|-12-12-12-12-12-12-12-12-12-12-o||
|-------------------------------|--------------------------------||


   Interlude
    N.C.(D)     N.C.(A/G)   N.C.(F#)
    Gtr III
      H.          H.          E   S  S  S  S  E  S  S  S  S
||------------|-----------|---------------------------------|
||o-----------|-----------|---------------------------------|
||------------|-----------|--11--11-11-11-11-11-11-11-11-11-|
||------------|-----------|---x---x--x--x--x--x--x--x--x--x-|
||o-----------|-----------|---9---9--9--9--9--9--9--9--9--9-|
||--/10-------|--\3-------|---------------------------------|
|
|   Gtr IV
|     H.          H.          H.
||------------|-----------|---------------------------------|
||o-----------|-----------|---------------------------------|
||------------|-----------|---------------------------------|
||------------|-----------|---------------------------------|
||o--/5-------|-/12-------|-/14-----------------------------|
||------------|-----------|---------------------------------|


  N.C.(E)
    S S S S S S E S S S S   4x
|---------------------------||
|--------------------------o||
|--11s9-9-9-9-9-9-9-9-9-9---||
|---x-x-x-x-x-x-x-x-x-x-x---||
|---9s7-7-7-7-7-7-7-7-7-7--o||
|---------------------------||
|
|   H.                      4x
|---------------------------||
|--------------------------o||
|---------------------------||
|---------------------------||
|-\12----------------------o||
|---------------------------||


  N.C.(D)
    H.         +H.         +H.         +H.
|-----------|-----------|-----------|---------|
|-----------|-----------|-----------|---------|
|---7-------|--(7)------|--(7)------|--(7)----|
|---x-------|--(x)------|--(x)------|--(x)----|
|---5-------|--(5)------|--(5)------|--(5)----|
|-----------|-----------|-----------|---------|
|
|   H.         +H.         +H.         +H.
|-----------|-----------|-----------|---------|
|-----------|-----------|-----------|---------|
|-----------|-----------|-----------|---------|
|-----------|-----------|-----------|---------|
|-\10-------|-(10)------|-(10)------|-(10)----|
|-----------|-----------|-----------|---------|


   Chorus
    D              G5/F#            D/A
    Gtr I
     E  E     E     E  E     E       E  E     E     q  E
||-----------------14-------------|-10-------------------|
||o-10----------------15----------|----10----------------|
||-----11-------------------------|----------11----------|
||-----------12-------------16----|----------------12----|
||o-------------------------------|----------------------|
||--------------------------------|----------------------|
|
|   Gtr II
|    E  S  S  S  S  E  S  S  S  S    E  S  S  S  S  q  E
||--------------------------------|----------------------|
||o-------------------------------|----------------------|
||--19-19-19-19-19-19-19-19-19-19-|-14-14-14-14-14-14----|
||---x--x--x--x--x--x--x--x--x--x-|--x--x--x--x--x--x----|
||o-17-17-17-17-17-17-17-17-17-17-|-12-12-12-12-12-12----|
||--------------------------------|----------------------|


  D              G5/F#            D/A
   E  E     E     E  E     E       E  E     E     E  E     E      3x
|----------------14-------------|-10------------------------------||
|-10----------------15----------|----10-------------------10-----o||
|----11-------------------------|----------11-------11------------||
|----------12-------------16----|----------------12---------------||
|-------------------------------|--------------------------------o||
|-------------------------------|---------------------------------||
|
|  E  S  S  S  S  E  S  S  S  S    E  S  S  S  S  E  S  S  S  S   3x
|-------------------------------|---------------------------------||
|-------------------------------|--------------------------------o||
|-19-19-19-19-19-19-19-19-19-19-|-14-14-14-14-14-14-14-14-14-14---||
|--x--x--x--x--x--x--x--x--x--x-|--x--x--x--x--x--x--x--x--x--x---||
|-17-17-17-17-17-17-17-17-17-17-|-12-12-12-12-12-12-12-12-12-12--o||
|-------------------------------|---------------------------------||


  D         D/C#        D/B       D/A
   E   E  E  E   E  E    E   E  E  E   E  E
|-14------------------|-14------------------|
|-----15----15--------|-----15----15--------|
|---------------14----|---------------14----|
|--------16--------16-|--------16--------16-|
|---------------------|---------------------|
|---------------------|---------------------|
|
|  Q.        Q.          Q.        Q.
|---------------------|---------------------|
|---------------------|---------------------|
|---------------------|---------------------|
|---------------------|---------------------|
|---------------------|---------------------|
|-10---------9--------|--7---------5--------|


  D/G       D/F#        D/E       D/F#
   E   E  E  E   E  E    E  E   E  E  E  E
|-14------------------|-14-----------------|
|-----15----15--------|----15-----15-------|
|---------------14----|--------------14----|
|--------16--------16-|--------16-------16-|
|---------------------|--------------------|
|---------------------|--------------------|
|
|  Q.        Q.          E  E   E  E  E  E
|---------------------|--------------------|
|---------------------|--------------------|
|---------------------|--------------------|
|---------------------|--------------------|
|---------------------|----(2)--2--4--4--4-|
|--3---------2--------|--0--0---0--2--2--2-|


   Breakdown
    Bsus2                                          Dsus2
    Gtr III
     E  S  S  S  S  E  S  S  S  S    E  S  S  S  S  E  S  S  S  S
||--------------------------------|-------------------------------|
||o-------------------------------|-------------------------------|
||--------------------------------|-------------------------------|
||--------------------------------|-------------------------------|
||o-------------------------------|-------------------------------|
||---9--9--9--9--9--9--9--9--9--9-|--9--9--9--9--9-12-12-12-12-12-|
|
|   Gtr IV
|    E  S  S  S  S  E  S  S  S  S    E  S  S  S  S  E  S  S  S  S
||--------------------------------|-------------------------------|
||o-------------------------------|-------------------------------|
||--------------------------------|-------------------------------|
||--11-11-11-11-11-11-11-11-11-11-|-11-11-11-11-11-14-14-14-14-14-|
||o--9--9--9--9--9--9--9--9--9--9-|--9--9--9--9--9-12-12-12-12-12-|
||---7--7--7--7--7--7--7--7--7--7-|--7--7--7--7--7-10-10-10-10-10-|


  Gsus2
  E S S S S E S S S S   E S S S S E S S S S    4x
|---------------------|------------------------||
|---------------------|-----------------------o||
|---------------------|------------------------||
|---------------------|------------------------||
|---------------------|-----------------------o||
|-5-5-5-5-5-5-5-5-5-5-|-5-5-5-5-5-5-5-5-5-5----||
|
| E S S S S E S S S S   E S S S S E S S S S    4x
|---------------------|------------------------||
|---------------------|-----------------------o||
|---------------------|------------------------||
|-7-7-7-7-7-7-7-7-7-7-|-7-7-7-7-7-7-7-7-7-7----||
|-5-5-5-5-5-5-5-5-5-5-|-5-5-5-5-5-5-5-5-5-5---o||
|-3-3-3-3-3-3-3-3-3-3-|-3-3-3-3-3-3-3-3-3-3----||


 Outro
  Bsus2
    H.                        +H.
|--------------------------|--------------------------|
|--------------------------|--------------------------|
|--------------------------|--------------------------|
|--------------------------|--------------------------|
|--------------------------|--------------------------|
|--/7----------------------|--(7)---------------------|
|
|   E   S  S  E E  S  S  E     E   S  S  E E  S  S  E
|--------------------------|--------------------------|
|--------------------------|--------------------------|
|--------------------------|--------------------------|
|------11-11-11---11-11-11-|------11-11-11---11-11-11-|
|-------9--9--9----9--9--9-|-------9--9--9----9--9--9-|
|---7-----------7----------|---7-----------7----------|
|
| Gtr II
|   >
|   H.                        +H.
|--------------------------|--------------------------|
|--------------------------|--------------------------|
|--------------------------|--------------------------|
|-^11----------------------|-(11)---------------------|
|-^-9----------------------|--(9)---------------------|
|-^-7----------------------|--(7)---------------------|


  Bsus2/G
   H.                       +H.
|-------------------------|--------------------------|
|-------------------------|--------------------------|
|-------------------------|--------------------------|
|-------------------------|--------------------------|
|-------------------------|--------------------------|
|-\3----------------------|-(3)----------------------|
|
|  E   S  S  E E  S  S  E    E   S  S  E E  S  S  E
|-------------------------|--------------------------|
|-------------------------|--------------------------|
|-------------------------|--------------------------|
|-----11-11-11---11-11-11-|-----11-11-11---11-11-11--|
|------9--9--9----9--9--9-|------9--9--9----9--9--9--|
|--7-----------7----------|--7-----------7-----------|
|
|  H.                        H.
|-------------------------|--------------------------|
|-------------------------|--------------------------|
|-------------------------|--------------------------|
|-------------------------|--------------------------|
|-------------------------|--------------------------|
|-------------------------|--------------------------|


                                                    H
  Bsus2
   H.                       +H.
|-------------------------|-------------------------|
|-------------------------|-------------------------|
|-------------------------|-------------------------|
|-------------------------|-------------------------|
|-------------------------|-------------------------|
|-/7----------------------|-(7)---------------------|
|
|  E   S  S  E E  S  S  E    E   S  S  E E  S  S  E
|-------------------------|-------------------------|
|-------------------------|-------------------------|
|-------------------------|-------------------------|
|-----11-11-11---11-11-11-|-----11-11-11---11-11-11-|
|------9--9--9----9--9--9-|------9--9--9----9--9--9-|
|--7-----------7----------|--7-----------7----------|


 .=H
  Bsus2/G
   H.                       +H.
|-------------------------|--------------------------|
|-------------------------|--------------------------|
|-------------------------|--------------------------|
|-------------------------|--------------------------|
|-------------------------|--------------------------|
|-\3----------------------|-(3)----------------------|
|
|  E   S  S  E E  S  S  E    E   S  S  E E  S  S  E
|-------------------------|--------------------------|
|-------------------------|--------------------------|
|-------------------------|--------------------------|
|-----11-11-11---11-11-11-|-----11-11-11---11-11-11--|
|------9--9--9----9--9--9-|------9--9--9----9--9--9--|
|--7-----------7----------|--7-----------7-----------|


  Q.=50
  Bsus2
    >
    H.         +H.
|-----------|---------|
|-----------|---------|
|-----------|---------|
|-----------|---------|
|-----------|---------|
|--/7-------|--(7)----|
|
|   >
|   H.         +H.
|-----------|---------|
|-----------|---------|
|-----------|---------|
|-----------|---------|
|-----------|---------|
|---7-------|--(7)----|
|
| Gtr II
|   >
|   H.         +H.
|-----------|---------|
|-----------|---------|
|-----------|---------|
|-^11-------|-(11)----|
|-^-9-------|--(9)----|
|-^-7-------|--(7)----|


 Piano Theme
  C#     A#           F#5                 C#     A#           F#5
 8/8
  Gtr V
  E  E E Q     E Q    E  E E S S  H       E  E E Q     E Q    E  E E E  H
|------9------------|-------------------|------9------------|-----------------|
|----------------6--|-7--6--------------|----------------6--|-7--6------------|
|----6---------6----|------6------------|----6---------6----|------6----------|
|-------------------|--------6-4-(4)----|-------------------|--------4-(4)----|
|-4-----------------|-------------------|-4-----------------|-----------------|
|--------6-(6)------|-------------------|--------6-(6)------|-----------------|
  Q.     E +H         Q.     S S +H       Q.     E +H         Q.     E +H


  C#          A#           F#5
     |-3-|                    |-3-|
  E  E S E.   Q     E Q    E  E S E. E  H
|--------9---------------|--------------------|
|------9--------------6--|-7--6-7-------------|
|----6--------------6----|--------6-----------|
|------------------------|-----------4-(4)----|
|-4----------------------|--------------------|
|-----------8p6-(6)------|--------------------|
  Q.        a E +H         Q.        E +H


  C#     A#           F#5
  E  E E Q     E Q    E  E E E  H
|------9------------|-----------------|
|----------------6--|-7--6------------|
|----6---------6----|------6----------|
|-------------------|--------4-(4)----|
|-4-----------------|-----------------|
|--------6-(6)------|-----------------|
  Q.     E +H         Q.     E +H


  C#     A#           F#5               C#     A#           F#5
  E  E E Q     E Q    E  E E E  H       E  E E Q     E Q    E  E E E  H
|------9------------|-----------------|------9------------|-----------------|
|----------------6--|-7--6------------|----------------6--|-7--6------------|
|----6---------6----|------6----------|----6---------6----|------6----------|
|-------------------|--------4-(4)----|-------------------|--------4-(4)----|
|-4-----------------|-----------------|-4-----------------|-----------------|
|--------6-(6)------|-----------------|--------6-(6)------|-----------------|
  Q.     E +H         Q.     E +H       Q.     E +H         Q.     E +H


  C#      A#           F#5
 9/8                  8/8
  E E E E Q     E Q    E  E E E  H
|-------9------------|-----------------*|
|-----------------6--|-7--6------------*|
|---6-----------6----|------6----------*|
|--------------------|--------4-(4)----*|
|-4------------------|-----------------*|
|---------6-(6)------|-----------------*|
  E E E E E +H         Q.     E +H



Duration Legend
---------------
W - whole; H - half; Q - quarter; E - 8th; S - 16th; T - 32nd; X - 64th; a - acciaccatura
+ - note tied to previous; . - note dotted; .. - note double dotted
Uncapitalized letters represent notes that are staccato (1/2 duration)
Irregular groupings are notated above the duration line
Duration letters will always appear directly above the note/fret number it represents the
duration for.  Duration letters with no fret number below them represent rests.  Multi-
bar rests are notated in the form Wxn, where n is the number of bars to rest for.  Low
melody durations appear below the staff

Tablature Legend
----------------
 h   - hammer-on
 p   - pull-off
 b   - bend
 pb  - pre-bend
 r   - bend release (if no number after the r, then release immediately)
 /\  - slide into or out of (from/to "nowhere")
 s   - legato slide
 S   - shift slide
<n> - natural harmonic
[n]  - artificial harmonic
n(n) - tapped harmonic
 ~   - vibrato
 tr  - trill
 T   - tap
 TP  - trem. picking
 PM  - palm muting
\n/  - tremolo bar dip; n = amount to dip
 \n  - tremolo bar down
 n/  - tremolo bar up
/n\  - tremolo bar inverted dip
 =   - hold bend; also acts as connecting device for hammers/pulls
 <> - volume swell (louder/softer)
 x   - on rhythm slash represents muted slash
 o   - on rhythm slash represents single note slash

Misc Legend
-----------
 |  - bar
||  - double bar
||o - repeat start
o|| - repeat end
*|  - double bar (ending)
 :  - bar (freetime)
 $  - Segno
 &  - Coda
Tempo markers - <E/E./Q/Q./H/H.> = BPM(8/16=s8/s16), where s8 = swing 8ths, s16 = swing 16ths


*** GuitarCats.com ***