Tabs by Artist
0-9 A B C D E F G H I J K L M N O P Q R S T U V W X Y Z

MANNEQUIN REPUBLIC

As recorded by At The Drive-In

(From the 2000 Album RELATIONSHIP OF COMMAND)

Tablature (Tab) for Guitar
Transcribed by Eoin Watson (watsy@nme.com)
Words and Music by At The Drive-In


E

0 7 x 9 x x
Dsus2/Bb

6 x 0 9 x x
Bmadd4

7 x 0 9 x x
A5

x 0 7 9 x x
E(type 2)

0 7 x x x x
C

6 7 x x x x
Bsus4

7 7 x x x x
Em

x 7 x 0 0 0
Em/Eb

x 6 x 0 0 0
Em/D

x 5 x 0 0 0
Em/C

x 3 x 0 0 0
Em/F#

x 9 x 0 0 0
Em/B

x 2 x 0 0 0



Gtr I (E A D G B E) - 'Omar Rodriguez'

Gtr II (E A D G B E) - 'Jim Ward'

Gtr III (E A D G B E) - 'Omar Clean'

Gtr IV (E A D G B E) - 'Jim Clean'


 INTRO
  Q=100
 4/4
  Gtr I
            /0.25\                /0.25\    /0.25\    /0.25\    /0.25\    /0.25\
   Q   Q    H            Q   Q    S         E         E         E         S
|---------------------|----------------------------------------------------------|
|---------<12>--------|---------<12>-----(<12>)----(<12>)----(<12>)----(<12>)----|
|--3---3--<12>--------|--3---3--<12>-----(<12>)----(<12>)----(<12>)----(<12>)----|
|--2---2--<12>--------|--2---2--<12>-----(<12>)----(<12>)----(<12>)----(<12>)----|
|--1---1--------------|--1---1---------------------------------------------------|
|--0---0--------------|--0---0---------------------------------------------------|
|
| Gtr II
|  Q   Q    H            Q   Q    H
|---------------------|----------------------------------------------------------|
|---------------------|----------------------------------------------------------|
|-15--15--------------|-15--15---------------------------------------------------|
|-14--14--------------|-14--14---------------------------------------------------|
|-13--13--------------|-13--13---------------------------------------------------|
|--0---0--------------|--0---0---------------------------------------------------|


           TP                 ~~~~
   Q   Q   H         Q   Q    H
|-----------------|-----------------||
|---------(x)\----|---------<12>----||
|--3---3--(x)\----|--3---3--<12>----||
|--2---2--(x)\----|--2---2--<12>----||
|--1---1----------|--1---1--<12>----||
|--0---0----------|--0---0----------||
|
|  Q   Q   H         Q   Q    H
|-----------------|-----------------||
|-----------------|-----------------||
|-15--15----------|-15--15----------||
|-14--14----------|-14--14----------||
|-13--13----------|-13--13----------||
|--0---0----------|--0---0----------||


   VERSE
    Q=108
    E               Dsus2/Bb          Bmadd4          A5
    Gtr II
    S S S S S S S S S S S S S S S S   S S S S S S S S S S S S S S S S
    | | | | | | | | | | | | | | | |   | | | | | | | | | | | | | | | |
    / / / / / / / / / / / / / / / /   / / / / / / / / / / / / / / / /

    Gtr I
    E   S S S S S S S S S S S S S S   E   S S S S S S E   S S E   S S
||----------------------------------|----------------------------------|
||o-5---5-5-5-5-5-5-5-5-5-5-5---0h5-|-3---3-3-3-3-3-3-2---2-2----------|
||----------------------------3-----|-------------------------3---3-3--|
||----------------------------------|----------------------------------|
||o---------------------------------|----------------------------------|
||----------------------------------|----------------------------------|


  E               Dsus2/Bb          Bmadd4          A5
  Gtr II
  S S S S S S S S S S S S S S S S   S S S S S S S S S S S S S S S S
  | | | | | | | | | | | | | | | |   | | | | | | | | | | | | | | | |
  / / / / / / / / / / / / / / / /   / / / / / / / / / / / / / / / /

  Gtr I
  E   S S S S S S S S S S S S S S   E   S S S S S S E   S S E   S S
|-----------------------0-----0---|----------------------------------||
|-5---5-5-5-5-5-5-5---0-----0---0-|-3---3-3-3-3-3-3-2---2-2---------o||
|-------------------3-----3-------|-------------------------3---3-3--||
|---------------------------------|----------------------------------||
|---------------------------------|---------------------------------o||
|---------------------------------|----------------------------------||


    E               Dsus2/Bb          Bmadd4          A5
    Gtr II
    S S S S S S S S S S S S S S S S   S S S S S S S S S S S S S S S S
    | | | | | | | | | | | | | | | |   | | | | | | | | | | | | | | | |
    / / / / / / / / / / / / / / / /   / / / / / / / / / / / / / / / /

    Gtr I
    E   S S S S S S S S S S S S S S   E   S S S S S S S S S S S S S S
||--0---0-0-0-0-0-0-0-0-0-0-0-0-0-0-|-0---0-0-0-0-0-0-0-0-0-0-0-0-0-0---||
||o-5---5-5-5-5-5-5-5-5-5-5-5-5-5-5-|-7---7-7-7-7-7-7-8-8-8-8-8-8-8-8--o||
||----------------------------------|-----------------------------------||
||----------------------------------|-----------------------------------||
||o---------------------------------|----------------------------------o||
||----------------------------------|-----------------------------------||


 Guitar Break
  Q=100
  Gtr I
                 /0.25\
   Q   Q         H
|-----------------------------------------|
|--------------<12>-----------------------|
|--3---3-------<12>-----------------------|
|--2---2-------<12>-----------------------|
|--1---1----------------------------------|
|--0---0----------------------------------|
|
| Gtr II
|  Q   E  S  S   E       S  S  E     S  S
|-----------------------------------------|
|-----------------------------------------|
|-15--15-15-15--15b16r==15-15-15b16r15-15-|
|--x---x--x--x-----------x--x--------x--x-|
|-13--13-13-13--13b14r==13-13-13b14r13-13-|
|--0---0--0--0----------------------------|


                 /0.25\    /0.25\       /0.25\          /0.25\       /0.25\
   Q   Q         S         E            E               E            S
|---------------------------------------------------------------------------|
|--------------<12>-----(<12>)-------(<12>)----------(<12>)-------(<12>)----|
|--3---3-------<12>-----(<12>)-------(<12>)----------(<12>)-------(<12>)----|
|--2---2-------<12>-----(<12>)-------(<12>)----------(<12>)-------(<12>)----|
|--1---1--------------------------------------------------------------------|
|--0---0--------------------------------------------------------------------|
|
|  Q   E  S  S   E                 S    S       E               S    S
|---------------------------------------------------------------------------|
|---------------------------------------------------------------------------|
|-15--15-15-15--15b16r============15---15------15b16r==========15---15------|
|--x---x--x--x---------------------x----x-----------------------x----x------|
|-13--13-13-13--13b14r============13---13------13b14r==========13---13------|
|--0---0--0--0--------------------------------------------------------------|


                TP                                      ~~~~
   Q   Q        H                         Q   Q         H
|--------------------------------------|---------------------------------||
|--------------(x)\--------------------|--------------<12>---------------||
|--3---3-------(x)\--------------------|--3---3-------<12>---------------||
|--2---2-------(x)\--------------------|--2---2-------<12>---------------||
|--1---1-------------------------------|--1---1-------<12>---------------||
|--0---0-------------------------------|--0---0--------------------------||
|
|  Q   E  S  S  E     S  S  E     S  S    Q   E  S  S   S  S S S S S S S
|--------------------------------------|---------------------------------||
|--------------------------------------|---------------------------------||
|-15--15-15-15-15b16r15-15-15b16r15-15-|-15--15-15-15---x--x-x-x-x-x-x-x-||
|--x---x--x--x--------x--x--------x--x-|--x---x--x--x---x--x-x-x-x-x-x-x-||
|-13--13-13-13-13b14r13-13-13b14r13-13-|-13--13-13-13---x--x-x-x-x-x-x-x-||
|--0---0--0--0-------------------------|--0---0--0--0---x--x-x-x-x-x-x-x-||


 Verse
  Q=108
  $
  E               Dsus2/Bb          Bmadd4          A5
  Gtr II
  S S S S S S S S S S S S S S S S   S S S S S S S S S S S S S S S S
  | | | | | | | | | | | | | | | |   | | | | | | | | | | | | | | | |
  / / / / / / / / / / / / / / / /   / / / / / / / / / / / / / / / /

  Gtr I
  E   S S S S S S S S S S S S S S   E   S S S S S S E   S S E   S S
|---------------------------------|---------------------------------|
|-5---5-5-5-5-5-5-5-5-5-5-5---0h5-|-3---3-3-3-3-3-3-2---2-2---------|
|---------------------------3-----|-------------------------3---3-3-|
|---------------------------------|---------------------------------|
|---------------------------------|---------------------------------|
|---------------------------------|---------------------------------|


  E               Dsus2/Bb          Bmadd4          A5
  S S S S S S S S S S S S S S S S   S S S S S S S S S S S S S S S S
  | | | | | | | | | | | | | | | |   | | | | | | | | | | | | | | | |
  / / / / / / / / / / / / / / / /   / / / / / / / / / / / / / / / /

  E   S S S S S S S S S S S S S S   E   S S S S S S E   S S E   S S
|-----------------------0-----0---|---------------------------------|
|-5---5-5-5-5-5-5-5---0-----0---0-|-3---3-3-3-3-3-3-2---2-2---------|
|-------------------3-----3-------|-------------------------3---3-3-|
|---------------------------------|---------------------------------|
|---------------------------------|---------------------------------|
|---------------------------------|---------------------------------|


    E               Dsus2/Bb          Bmadd4          A5
    S S S S S S S S S S S S S S S S   S S S S S S S S S S S S S S S S
    | | | | | | | | | | | | | | | |   | | | | | | | | | | | | | | | |
    / / / / / / / / / / / / / / / /   / / / / / / / / / / / / / / / /

    E   S S S S S S S S S S S S S S   E   S S S S S S S S S S S S S S
||--0---0-0-0-0-0-0-0-0-0-0-0-0-0-0-|-0---0-0-0-0-0-0-0-0-0-0-0-0-0-0---||
||o-5---5-5-5-5-5-5-5-5-5-5-5-5-5-5-|-7---7-7-7-7-7-7-8-8-8-8-8-8-8-8--o||
||----------------------------------|-----------------------------------||
||----------------------------------|-----------------------------------||
||o---------------------------------|----------------------------------o||
||----------------------------------|-----------------------------------||


   Chorus
                                              To Coda
    Gtrs I, II
     E. S E S S E S  S  E  E    E. S E S S E S S E S S  4x
||---------------------------|--------------------------||
||o--------------------------|-------------------------o||
||--13--9-9---9-9---14-14-16-|-11--7-7---7-7---6-6------||
||---x--x-x---x-x----x--x--x-|--x--x-x---x-x---x-x------||
||o-11--7-7-7-7-7-7-12-12-14-|--9--5-5-5-5-5-5-4-4-4-4-o||
||---0----0-0-0-0-0--0--0--0-|--0--0-0-0-0-0-0-0-0-0-0--||


    E(tyCe 2BsuC4              E(tyCe 2BsuC4
    Gtr II
    E.  E.  E. E. +Q           E.  E.  E. E. +Q
    |   |   |  |   |           |   |   |  |   |
    /   /   /  /   /           /   /   /  /   /

    Gtr I
    E.  E.  E. E.  E    +E     E.  E.  E. E.  E    +E
||--0---0---0--0---0----(0)--|-0---0---0--0---0----(0)---||
||o-5b6r0---2--3---0----(0)--|-5b6r0---0--3---0----(0)--o||
||------3b4--------3b4==(3)r-|-----3b4-4------3b4==(3)r--||
||---------------------------|---------------------------||
||o--------------------------|--------------------------o||
||---------------------------|---------------------------||


  Gtr I
                 /0.25\
   Q   Q         H
|-----------------------------------------|
|--------------<12>-----------------------|
|--3---3-------<12>-----------------------|
|--2---2-------<12>-----------------------|
|--1---1----------------------------------|
|--0---0----------------------------------|
|
| Gtr II
|  Q   E  S  S   E       S  S  E     S  S
|-----------------------------------------|
|-----------------------------------------|
|-15--15-15-15--15b16r==15-15-15b16r15-15-|
|--x---x--x--x-----------x--x--------x--x-|
|-13--13-13-13--13b14r==13-13-13b14r13-13-|
|--0---0--0--0----------------------------|


                 /0.25\    /0.25\       /0.25\          /0.25\       /0.25\
   Q   Q         S         E            E               E            S
|---------------------------------------------------------------------------|
|--------------<12>-----(<12>)-------(<12>)----------(<12>)-------(<12>)----|
|--3---3-------<12>-----(<12>)-------(<12>)----------(<12>)-------(<12>)----|
|--2---2-------<12>-----(<12>)-------(<12>)----------(<12>)-------(<12>)----|
|--1---1--------------------------------------------------------------------|
|--0---0--------------------------------------------------------------------|
|
|  Q   E  S  S   E                 S    S       E               S    S
|---------------------------------------------------------------------------|
|---------------------------------------------------------------------------|
|-15--15-15-15--15b16r============15---15------15b16r==========15---15------|
|--x---x--x--x---------------------x----x-----------------------x----x------|
|-13--13-13-13--13b14r============13---13------13b14r==========13---13------|
|--0---0--0--0--------------------------------------------------------------|


                TP
   Q   Q        H
|--------------------------------------|
|--------------(x)\--------------------|
|--3---3-------(x)\--------------------|
|--2---2-------(x)\--------------------|
|--1---1-------------------------------|
|--0---0-------------------------------|
|
|  Q   E  S  S  E     S  S  E     S  S
|--------------------------------------|
|--------------------------------------|
|-15--15-15-15-15b16r15-15-15b16r15-15-|
|--x---x--x--x--------x--x--------x--x-|
|-13--13-13-13-13b14r13-13-13b14r13-13-|
|--0---0--0--0-------------------------|


                 ~~~~~~~
   Q   Q         H
|---------------------------------------||
|--------------<12>---------------------||
|--3---3-------<12>---------------------||
|--2---2-------<12>---------------------||
|--1---1-------<12>---------------------||
|--0---0--------------------------------||
|
|  Q   E  S  S   E     S  S  E     S  S
|---------------------------------------||
|---------------------------------------||
|-15--15-15-15--15b16r15-15-15b16r15-15-||
|--x---x--x--x---------x--x--------x--x-||
|-13--13-13-13--13b14r13-13-13b14r13-13-||
|--0---0--0--0--------------------------||


 Bridge
  Em      Em/Eb     Em/D     Em/C      Em/F#
  Gtr IV
  E E E E E E E E   E E E  E E E E E   E E E E E E E E
  | | | | | | | |   | | |  | | | | |   | | | | | | | |
  / / / / / / / /   / / /  / / / / /   / / / / / / / /

  Gtr III
  E E E E E E E E   E E E  E E E E E   E E E E E E E E
|---0---0---0---0-|---0----0---0---0-|---0---0-------0-|
|-5---5---7---7---|-8---8\---3---3---|-----------0-----|
|-----------------|------------------|-4---4---4---4---|
|-----------------|------------------|-----------------|
|-----------------|------------------|-----------------|
|-----------------|------------------|-----------------|


                                         D.S. al Coda
  Em      Em/Eb     Em/D     Em/C      Em/B
  E E E E E E E E   E E E  E E E E E   E E E E E E E E
  | | | | | | | |   | | |  | | | | |   | | | | | | | |
  / / / / / / / /   / / /  / / / / /   / / / / / / / /

  E E E E E E E E   E E E  E E E E E   E E E E E E E E
|---0---0---0---0-|---0----0---0---0-|---0---0---0---0-||
|-5---5---7---7---|-8---8\---3---3---|-4---4---4---4---||
|-----------------|------------------|-----------------||
|-----------------|------------------|-----------------||
|-----------------|------------------|-----------------||
|-----------------|------------------|-----------------||


 Outro
  Q=100
  &
 4/4
  Gtr I
   Q   Q    Q   Q      Q   Q    S  S  S  S  S  S  S  S
|-----------0---0---|-----------0--0--0--0--0--0--0--0-|
|----------12--12---|----------12-12-12-12-12-12-12-12-|
|--3---3---14--15---|--3---3---14-14-14-14-14-14-14-14-|
|--2---2------------|--2---2---------------------------|
|--1---1------------|--1---1---------------------------|
|--0---0------------|--0---0---------------------------|
|
| Gtr II
|  Q   Q    Q   E E    Q   Q    Q           E     S  S
|-------------------|----------------------------------|
|-------------------|----------------------------------|
|-15--15\---------x-|-15--15\---------------------x--x-|
|-14--14\---------x-|-14--14\---------------------x--x-|
|-13--13\---------x-|-13--13\---------------------x--x-|
|--0---0----------x-|--0---0----------------------x--x-|


     Q   Q        Q           Q            4x
||----------------0-----------0------------||
||o--------------12----------12-----------o||
||---3---3-------14----------15------------||
||---2---2---------------------------------||
||o--1---1--------------------------------o||
||---0---0---------------------------------||
|
|    Q   E  S  S  E     S  S  E     S  S   4x
||-----------------------------------------||
||o---------------------------------------o||
||--15--15-15-15-15b16r15-15-15b16r15-15---||
||---x---x--x--x--------x--x--------x--x---||
||o-13--13-13-13-13b14r13-13-13b14r13-13--o||
||---0---0--0--0---------------------------||


 2/4       4/4
   Q   Q    W           Q   Q   H      W
|---------|----------|---------------|------*|
|---------|----------|---------------|------*|
|--3---3--|----------|--3---3\-------|------*|
|--2---2--|----------|--2---2\-------|------*|
|--1---1--|----------|--1---1\-------|------*|
|--0---0--|----------|--0---0--------|------*|
|
|  Q   Q    W           Q   Q   H      W
|---------|----------|---------------|------*|
|---------|----------|---------------|------*|
|-15--15--|----------|-15--15\-------|------*|
|-14--14--|----------|-14--14\-------|------*|
|-13--13--|----------|-13--13\-------|------*|
|--0---0--|----------|--0---0--------|------*|



Duration Legend
---------------
W - whole; H - half; Q - quarter; E - 8th; S - 16th; T - 32nd; X - 64th; a - acciaccatura
+ - note tied to previous; . - note dotted; .. - note double dotted
Uncapitalized letters represent notes that are staccato (1/2 duration)
Irregular groupings are notated above the duration line
Duration letters will always appear directly above the note/fret number it represents the
duration for.  Duration letters with no fret number below them represent rests.  Multi-
bar rests are notated in the form Wxn, where n is the number of bars to rest for.  Low
melody durations appear below the staff

Tablature Legend
----------------
 h   - hammer-on
 p   - pull-off
 b   - bend
 pb  - pre-bend
 r   - bend release (if no number after the r, then release immediately)
 /\  - slide into or out of (from/to "nowhere")
 s   - legato slide
 S   - shift slide
<n> - natural harmonic
[n]  - artificial harmonic
n(n) - tapped harmonic
 ~   - vibrato
 tr  - trill
 T   - tap
 TP  - trem. picking
 PM  - palm muting
\n/  - tremolo bar dip; n = amount to dip
 \n  - tremolo bar down
 n/  - tremolo bar up
/n\  - tremolo bar inverted dip
 =   - hold bend; also acts as connecting device for hammers/pulls
 <> - volume swell (louder/softer)
 x   - on rhythm slash represents muted slash
 o   - on rhythm slash represents single note slash

Misc Legend
-----------
 |  - bar
||  - double bar
||o - repeat start
o|| - repeat end
*|  - double bar (ending)
 :  - bar (freetime)
 $  - Segno
 &  - Coda
Tempo markers - <E/E./Q/Q./H/H.> = BPM(8/16=s8/s16), where s8 = swing 8ths, s16 = swing 16ths


*** GuitarCats.com ***