Tabs by Artist
0-9 A B C D E F G H I J K L M N O P Q R S T U V W X Y Z

METRONOME ARTHRITIS

As recorded by At The Drive-In

(From the 1999 EP VAYA)

Tablature (Tab) for Guitar
Transcribed by Elliott
Words by Cedric Bixler-Zavala

Music by At The Drive-In
Arranged by At The Drive-In


Gtr I (E A D G B E) - 'Overdriven - Omar'

Gtr II (E A D G B E) - 'Distorted - Jim'

Gtr III (E A D G B E) - 'Distorted - Omar'


   Intro
    Q=65
    N.C.
   4/4
    Gtrs I, II
      PM|     PM--|                   PM|     PM--|
    e S S S S S S S S S S S  E  S   e S S S S S S S S S S S S S S
||--------------------------------|--------------------------------||
||o-------------------------------|-------------------------------o||
||--------------------------------|--------------------------------||
||--------------------------------|--------------------------------||
||o-7-7-7-7---7-7-7-------7-(7)---|-7-7-7-7---7-7-7---------5-5---o||
||--5-5-5-5h8-8-8-8-0-0-0-8--7--0-|-5-5-5-5h8-8-8-8-0-0-0-0-7-7-0--||


   1st Verse
    N.C.
    Gtr I
      PM|     PM--|                   PM|     PM--|
    e S S S S S S S S S S S  E  S   e S S S S S S S S S S S S S S
||--------------------------------|---------------------------------||
||o-------------------------------|--------------------------------o||
||--------------------------------|---------------------------------||
||--------------------------------|---------------------------------||
||o-7-7-7-7---7-7-7-------7-(7)---|-7-7-7-7---7-7-7---------5-5----o||
||--5-5-5-5h8-8-8-8-0-0-0-8--7--0-|-5-5-5-5h8-8-8-8-0-0-0-0-7-7-0---||


    Gtr I
      PM|     PM--|                   PM|     PM--|
    e S S S S S S S S S S S  E  S   e S S S S S S S S S S S S S S
||--------------------------------|---------------------------------||
||o-------------------------------|--------------------------------o||
||--------------------------------|---------------------------------||
||--------------------------------|---------------------------------||
||o-7-7-7-7---7-7-7-------7-(7)---|-7-7-7-7---7-7-7---------5-5----o||
||--5-5-5-5h8-8-8-8-0-0-0-8--7--0-|-5-5-5-5h8-8-8-8-0-0-0-0-7-7-0---||


  Gtr I
      PM|       PM--|                         PM|     PM--|
   e  S S  S S  S S  S S S S  S  E     S    e S S S S S S S S S S S S S S
|----------------------------------------|---------------------------------|
|----------------------------------------|---------------------------------|
|----------------------------------------|---------------------------------|
|----------------------------------------|---------------------------------|
|--7--7-7--7----7-7--7--------7-(7)------|--7-7-7-7---7-7-7---------5-5----|
|--5--5-5--5h8--8-8--8-0-0-0--8--7-----0-|--5-5-5-5h8-8-8-8-0-0-0-0-7-7-0--|
|
| Gtr II
|  E  E    E    E    Q        E      E      W
|-17-12---15--------12-------------------|---------------------------------|
|--------------15------------12-----13---|---------------------------------|
|----------------------------------------|-14------------------------------|
|----------------------------------------|---------------------------------|
|----------------------------------------|---------------------------------|
|----------------------------------------|---------------------------------|


     PM|       PM--|                         PM|     PM--|
   e S S  S S  S S  S S S S  S  E     S    e S S S S S S S S S S S S S S
|---------------------------------------|---------------------------------|
|---------------------------------------|---------------------------------|
|---------------------------------------|---------------------------------|
|---------------------------------------|---------------------------------|
|--7-7-7--7----7-7--7--------7-(7)------|--7-7-7-7---7-7-7---------5-5----|
|--5-5-5--5h8--8-8--8-0-0-0--8--7-----0-|--5-5-5-5h8-8-8-8-0-0-0-0-7-7-0--|
|
|  Q      E    E    Q        E      E      W
|-12-----15--------12-------------------|---------------------------------|
|-------------15------------12-----13---|---------------------------------|
|---------------------------------------|-14------------------------------|
|---------------------------------------|---------------------------------|
|---------------------------------------|---------------------------------|
|---------------------------------------|---------------------------------|


 Bridge
  N.C.
  Gtr I
  S S S S e S S e S S S S S S   S S S S e S S S S S S S S E
|-----------------------------|-----------------------------|
|-----------------------------|-----------------------------|
|---9-8-4-5---5-----5---5---4-|---9-8-4-5---5---5---5---5-4-|
|-7---------7-----7-----------|-----------7-------7---------|
|---------------8-----8---8---|---------------8-------8-----|
|-----------------------------|-----------------------------|


  S S S S e S S e S S S S S S   S S S S S  S  S S S S S S S S E
|-----------------------------|---------------------------------|
|-----------------------------|---------------------------------|
|---9-8-4-5---5-----5---5-7-4-|---9-8-4-5p(4)---5---5---5---5-4-|
|-----------7-----7-----------|---------------7-------7---------|
|---------------8-----8-------|-------------------8-------8-----|
|-----------------------------|---------------------------------|


   2nd Verse
    N.C.
    Gtr I
       PM|       PM--|                      PM|     PM--|
    e  S S  S S  S S  S S S S  S  E  S    e S S S S S S S S S S S S S S   4x
||-------------------------------------|----------------------------------||
||o------------------------------------|---------------------------------o||
||-------------------------------------|----------------------------------||
||-------------------------------------|----------------------------------||
||o-7--7-7--7----7-7--7--------7-(7)---|--7-7-7-7---7-7-7---------5-5----o||
||--5--5-5--5h8--8-8--8-0-0-0--8--7--0-|--5-5-5-5h8-8-8-8-0-0-0-0-7-7-0---||
|
|   Gtr II
|   E  E    E    E    Q        Q          W                               4x
||----17---12---15------------12-------|----------------------------------||
||o------------------15----------------|---------------------------------o||
||-------------------------------------|-14-------------------------------||
||-------------------------------------|----------------------------------||
||o------------------------------------|---------------------------------o||
||-------------------------------------|----------------------------------||


 Bridge
  N.C.
  Gtr I
  S S E e S S S S S S S S S S   S S E e S S S S S S S S E
|-----------------------------|---------------------------|
|-----------------------------|---------------------------|
|---9-8-5---5---5---5---5---4-|---9-8-5---5---5---5---5-4-|
|-7-------7-------7-----------|---------7-------7---------|
|-------------8-------8---8---|-------------8-------8-----|
|-----------------------------|---------------------------|


  S S E e S S S S S S S S S S   S S S S e S S S S S S S S E
|-----------------------------|-----------------------------|
|-----------------------------|-------0---------------------|
|---9-8-5---5---5---5---5-7-4-|---9-8---5---5---5---5---5-4-|
|---------7-------7-----------|-----------7-------7---------|
|-------------8-------8-------|---------------8-------8-----|
|-----------------------------|-----------------------------|


  Gtrs I, II
  S S S S S  S  S S S S S S S S S S   S S S S e S S S S S S S S E
|-----------------------------------|------------------------------|
|-------0---------------------------|-------0----------------------|
|---9-8---5p(4)---5---5---5---5---4-|---9-8---5---5---5---5---5-4--|
|---------------7-------7-----------|-----------7-------7----------|
|-------------------8-------8---8---|---------------8-------8------|
|-----------------------------------|------------------------------|


  S S S S e S S S S S S S S S S   S S S S e S S S S S S S S E
|-------------------------------|-----------------------------|
|-------0-----------------------|-------0---------------------|
|---9-8---5---5---5---5---5-7-4-|---9-8---5---5---5---5---5-0-|
|-----------7-------7-----------|-----------7-------7---------|
|---------------8-------8-------|---------------8-------8-----|
|-------------------------------|-----------------------------|


 Interlude
  Em                        Eb
  Gtr I
  PM----------------------------------------------|
  S e S e S e S e S S S S   S e S e S e S e S S S S
|-------------------------|-------------------------|
|-------------------------|-------------------------|
|-------------------------|---------0-0-------------|
|-5-5-5-5-5-5-5-5-5-5-5-5-|-5-5-5-5-5-5-5-5-5-5-5-5-|
|-7-7-7-7-7-7-7-7-7-7-7-7-|-6-6-6-6-----6-6-6-6-6-6-|
|-------------------------|-------------------------|


  Q=75
  Em                        Eb
  Gtr I
  PM----------------------------------------------|
  S e S e S e S e S S S S   S e S e S e S e S S S S
|-------------------------|-------------------------|
|-------------------------|-------------------------|
|-------------------------|---------0-0-------------|
|-5-5-5-5-5-5-5-5-5-5-5-5-|-5-5-5-5-5-5-5-5-5-5-5-5-|
|-7-7-7-7-7-7-7-7-7-7-7-7-|-6-6-6-6-----6-6-6-6-6-6-|
|-------------------------|-------------------------|
|
| Gtr II
| S e S e S e S e S S S S   S e S e S e S e S S S S
|-------------------------|-------------------------|
|-8-8-8-8-8-8-8-8-8-8-8-8-|-8-8-8-8-8-8-8-8-8-8-8-8-|
|-0-0-0-0-0-0-0-0-0-0-0-0-|-0-0-0-0-0-0-0-0-0-0-0-0-|
|-x-x-x-x-x-x-x-x-x-x-x-x-|-x-x-x-x-x-x-x-x-x-x-x-x-|
|-7-7-7-7-7-7-7-7-7-7-7-7-|-6-6-6-6-6-6-6-6-6-6-6-6-|
|-------------------------|-------------------------|


   Chorus
    Em                        Eb
    Gtr III
    S e S e S e S e S S S S   S e S e S e S e S S S S
||--------------------------|--------------------------|
||o-8-8-8-8-8-8-8-8-8-8-8-8-|-8-8-8-8-8-8-8-8-8-8-8-8--|
||--0-0-0-0-0-0-0-0-0-0-0-0-|-0-0-0-0-0-0-0-0-0-0-0-0--|
||--x-x-x-x-x-x-x-x-x-x-x-x-|-x-x-x-x-x-x-x-x-x-x-x-x--|
||o-7-7-7-7-7-7-7-7-7-7-7-7-|-6-6-6-6-6-6-6-6-6-6-6-6--|
||--------------------------|--------------------------|
|
|   Gtr II
|   S e S e S e S e S S S S   S e S e S e S e S S S S
||--------------------------|--------------------------|
||o-8-8-8-8-8-8-8-8-8-8-8-8-|-8-8-8-8-8-8-8-8-8-8-8-8--|
||--0-0-0-0-0-0-0-0-0-0-0-0-|-0-0-0-0-0-0-0-0-0-0-0-0--|
||--x-x-x-x-x-x-x-x-x-x-x-x-|-x-x-x-x-x-x-x-x-x-x-x-x--|
||o-7-7-7-7-7-7-7-7-7-7-7-7-|-6-6-6-6-6-6-6-6-6-6-6-6--|
||--------------------------|--------------------------|


  G5/D                      C5
  S e S e S e S e S S S S   S e S e S e S e S S S S  3x
|-------------------------|--------------------------||
|-8-8-8-8-8-8-8-8-8-8-8-8-|-8-8-8-8-8-8-8-8-8-8-8-8-o||
|-0-0-0-0-0-0-0-0-0-0-0-0-|-0-0-0-0-0-0-0-0-0-0-0-0--||
|-x-x-x-x-x-x-x-x-x-x-x-x-|-x-x-x-x-x-x-x-x-x-x-x-x--||
|-5-5-5-5-5-5-5-5-5-5-5-5-|-x-x-x-x-x-x-x-x-x-x-x-x-o||
|-------------------------|-8-8-8-8-8-8-8-8-8-8-8-8--||
|
| S e S e S e S e S S S S   S e S e S e S e S S S S  3x
|-------------------------|--------------------------||
|-8-8-8-8-8-8-8-8-8-8-8-8-|-8-8-8-8-8-8-8-8-8-8-8-8-o||
|-0-0-0-0-0-0-0-0-0-0-0-0-|-0-0-0-0-0-0-0-0-0-0-0-0--||
|-x-x-x-x-x-x-x-x-x-x-x-x-|-x-x-x-x-x-x-x-x-x-x-x-x--||
|-5-5-5-5-5-5-5-5-5-5-5-5-|-x-x-x-x-x-x-x-x-x-x-x-x-o||
|-------------------------|-8-8-8-8-8-8-8-8-8-8-8-8--||


 Outro
  Em
   E    S  S  E  S  S  E    S  S  E    S  S
|---------12-------12---------12---------12-|
|-12---12----12-12----12---12----12---12----|
|-------------------------------------------|
|-------------------------------------------|
|-------------------------------------------|
|-------------------------------------------|
|
|  S e     S  e  S  e    S  e     S S  S  S
|-------------------------------------------|
|--8-8-----8--8--8--8----8--8-----8-8--8--8-|
|--0-0-----0--0--0--0----0--0-----0-0--0--0-|
|--x-x-----x--x--x--x----x--x-----x-x--x--x-|
|--7-7-----7--7--7--7----7--7-----7-7--7--7-|
|-------------------------------------------|


  Eb
   E    +S   E    +S   E    +S   E    +S   E    E
|---------------------14---(14)---------------------|
|-----------12---(12)-----------12---(12)------12---|
|-14---(14)-------------------------------14--------|
|---------------------------------------------------|
|---------------------------------------------------|
|---------------------------------------------------|
|
|  S e       S e       S e       S e       S S  S S
|---------------------------------------------------|
|--8-8-------8-8-------8-8-------8-8-------8-8--8-8-|
|--0-0-------0-0-------0-0-------0-0-------0-0--0-0-|
|--x-x-------x-x-------x-x-------x-x-------x-x--x-x-|
|--6-6-------6-6-------6-6-------6-6-------6-6--6-6-|
|---------------------------------------------------|


  G5/D
   S  E  E    E    E  E    E    S  S  S
|-------17----------------17------------|
|-13-15------15---13-15--------15-13-15-|
|---------------------------------------|
|---------------------------------------|
|---------------------------------------|
|---------------------------------------|
|
|  S  e  S e    S  e  S e    S  S  S  S
|---------------------------------------|
|--8--8--8-8----8--8--8-8----8--8--8--8-|
|--0--0--0-0----0--0--0-0----0--0--0--0-|
|--x--x--x-x----x--x--x-x----x--x--x--x-|
|--5--5--5-5----5--5--5-5----5--5--5--5-|
|---------------------------------------|


  C5
   E    +S   E    +S   E    +S   E    +S   E     E
|-----------14---(14)-15---(15)-----------------------|
|-12---(12)---------------------15---(15)-13\---12----|
|-----------------------------------------------------|
|-----------------------------------------------------|
|-----------------------------------------------------|
|-----------------------------------------------------|
|
|  S e       S e       S e       S e       S  S  S S
|-----------------------------------------------------|
|--8-8-------8-8-------8-8-------8-8-------8--8--8-8--|
|--0-0-------0-0-------0-0-------0-0-------0--0--0-0--|
|--x-x-------x-x-------x-x-------x-x-------x--x--x-x--|
|--x-x-------x-x-------x-x-------x-x-------x--x--x-x--|
|--8-8-------8-8-------8-8-------8-8-------8--8--8-8--|


  Em
   E    S  S  E  S  S  E    S  S  E    S  S
|---------12-------12---------12---------12-|
|-12---12----12-12----12---12----12---12----|
|-------------------------------------------|
|-------------------------------------------|
|-------------------------------------------|
|-------------------------------------------|
|
|  S e     S  e  S  e    S  e     S S  S  S
|-------------------------------------------|
|--8-8-----8--8--8--8----8--8-----8-8--8--8-|
|--0-0-----0--0--0--0----0--0-----0-0--0--0-|
|--x-x-----x--x--x--x----x--x-----x-x--x--x-|
|--7-7-----7--7--7--7----7--7-----7-7--7--7-|
|-------------------------------------------|


  Eb
   S  S  S  S  S  S  S  S  S  S  S  S  S  S  E
|-------14-------14-------14-------14-------14---|
|----12-------12-------12-------12-------12------|
|-14-------14-------14-------14-------14---------|
|------------------------------------------------|
|------------------------------------------------|
|------------------------------------------------|
|
|  S  e     S  e     S  e     S  e     S  S  S S
|------------------------------------------------|
|--8--8-----8--8-----8--8-----8--8-----8--8--8-8-|
|--0--0-----0--0-----0--0-----0--0-----0--0--0-0-|
|--x--x-----x--x-----x--x-----x--x-----x--x--x-x-|
|--6--6-----6--6-----6--6-----6--6-----6--6--6-6-|
|------------------------------------------------|


  G5/D
   S  E  E    E    E  E    E    S  S  S
|-------17----------------17------------|
|-13-15------15---13-15--------15-13-15-|
|---------------------------------------|
|---------------------------------------|
|---------------------------------------|
|---------------------------------------|
|
|  S  e  S e    S  e  S e    S  S  S  S
|---------------------------------------|
|--8--8--8-8----8--8--8-8----8--8--8--8-|
|--0--0--0-0----0--0--0-0----0--0--0--0-|
|--x--x--x-x----x--x--x-x----x--x--x--x-|
|--5--5--5-5----5--5--5-5----5--5--5--5-|
|---------------------------------------|


  C5
   E    +S   E    +S   E    +S   E    +S   E    E
|-----------14---(14)-15---(15)-----------------------|
|-12---(12)---------------------15---(15)-13---12\----|
|-----------------------------------------------------|
|-----------------------------------------------------|
|-----------------------------------------------------|
|-----------------------------------------------------|
|
|  S e       S e       S e       S e       S S  S  S
|-----------------------------------------------------|
|--8-8-------8-8-------8-8-------8-8-------8-8--8--8--|
|--0-0-------0-0-------0-0-------0-0-------0-0--0--0--|
|--x-x-------x-x-------x-x-------x-x-------x-x--x--x--|
|--x-x-------x-x-------x-x-------x-x-------x-x--x--x--|
|--8-8-------8-8-------8-8-------8-8-------8-8--8--8--|


  Em
   S  S  S  S  E  S  S  S  S  S  S  S  S  S  S
|----12----12-------12----12----12----12----12-|
|-12----12----12-12----12----12----12----12----|
|----------------------------------------------|
|----------------------------------------------|
|----------------------------------------------|
|----------------------------------------------|
|
|  S  e     S  e  S  e     S  e     S  S  S  S
|----------------------------------------------|
|--8--8-----8--8--8--8-----8--8-----8--8--8--8-|
|--0--0-----0--0--0--0-----0--0-----0--0--0--0-|
|--x--x-----x--x--x--x-----x--x-----x--x--x--x-|
|--7--7-----7--7--7--7-----7--7-----7--7--7--7-|
|----------------------------------------------|


  Eb
   E    +S   E    +S   E    +S   E    +S   E    E
|---------------------14---(14)---------------------|
|-----------12---(12)-----------12---(12)------12---|
|-14---(14)-------------------------------14--------|
|---------------------------------------------------|
|---------------------------------------------------|
|---------------------------------------------------|
|
|  S e       S e       S e       S e       S S  S S
|---------------------------------------------------|
|--8-8-------8-8-------8-8-------8-8-------8-8--8-8-|
|--0-0-------0-0-------0-0-------0-0-------0-0--0-0-|
|--x-x-------x-x-------x-x-------x-x-------x-x--x-x-|
|--6-6-------6-6-------6-6-------6-6-------6-6--6-6-|
|---------------------------------------------------|


  G5/D
   S  E  E    E    E  E    E    S  S  S
|-------17----------------17------------|
|-13h15------15---13h15--------15-13-15-|
|---------------------------------------|
|---------------------------------------|
|---------------------------------------|
|---------------------------------------|
|
|  S  e  S e    S  e  S e    S  S  S  S
|---------------------------------------|
|--8--8--8-8----8--8--8-8----8--8--8--8-|
|--0--0--0-0----0--0--0-0----0--0--0--0-|
|--x--x--x-x----x--x--x-x----x--x--x--x-|
|--5--5--5-5----5--5--5-5----5--5--5--5-|
|---------------------------------------|


  C5
   E    +S   E    +S   E    +S   E    +S   E     E
|-----------14---(14)-15---(15)-----------------------*|
|-12---(12)---------------------15---(15)-13\---12----*|
|-----------------------------------------------------*|
|-----------------------------------------------------*|
|-----------------------------------------------------*|
|-----------------------------------------------------*|
|
|  S e       S e       S e       S e       S  S  S S
|-----------------------------------------------------*|
|--8-8-------8-8-------8-8-------8-8-------8--8--8-8--*|
|--0-0-------0-0-------0-0-------0-0-------0--0--0-0--*|
|--x-x-------x-x-------x-x-------x-x-------x--x--x-x--*|
|--x-x-------x-x-------x-x-------x-x-------x--x--x-x--*|
|--8-8-------8-8-------8-8-------8-8-------8--8--8-8--*|



Duration Legend
---------------
W - whole; H - half; Q - quarter; E - 8th; S - 16th; T - 32nd; X - 64th; a - acciaccatura
+ - note tied to previous; . - note dotted; .. - note double dotted
Uncapitalized letters represent notes that are staccato (1/2 duration)
Irregular groupings are notated above the duration line
Duration letters will always appear directly above the note/fret number it represents the
duration for.  Duration letters with no fret number below them represent rests.  Multi-
bar rests are notated in the form Wxn, where n is the number of bars to rest for.  Low
melody durations appear below the staff

Tablature Legend
----------------
 h   - hammer-on
 p   - pull-off
 b   - bend
 pb  - pre-bend
 r   - bend release (if no number after the r, then release immediately)
 /\  - slide into or out of (from/to "nowhere")
 s   - legato slide
 S   - shift slide
<n> - natural harmonic
[n]  - artificial harmonic
n(n) - tapped harmonic
 ~   - vibrato
 tr  - trill
 T   - tap
 TP  - trem. picking
 PM  - palm muting
\n/  - tremolo bar dip; n = amount to dip
 \n  - tremolo bar down
 n/  - tremolo bar up
/n\  - tremolo bar inverted dip
 =   - hold bend; also acts as connecting device for hammers/pulls
 <> - volume swell (louder/softer)
 x   - on rhythm slash represents muted slash
 o   - on rhythm slash represents single note slash

Misc Legend
-----------
 |  - bar
||  - double bar
||o - repeat start
o|| - repeat end
*|  - double bar (ending)
 :  - bar (freetime)
 $  - Segno
 &  - Coda
Tempo markers - <E/E./Q/Q./H/H.> = BPM(8/16=s8/s16), where s8 = swing 8ths, s16 = swing 16ths


*** GuitarCats.com ***