Tabs by Artist
0-9 A B C D E F G H I J K L M N O P Q R S T U V W X Y Z

NAPOLEON SOLO

As recorded by At the Drive-In

(From the 1998 Album IN/CASINO/OUT)

Tablature (Tab) for Guitar
Transcribed by Cody Smith
Music by At the Drive-In

Gtr I (E A D G B E) - 'Gtr. 1, Clean'

Gtr II (E A D G B E) - 'Gtr. 2, Clean'

Gtr III (E A D G B E) - 'Gtr. 1, Dist.'

Gtr IV (E A D G B E) - 'Gtr. 2, Dist.'

Gtr V (E A D G B E) - 'Gtr. 1, light dist.'

Gtr VI (E A D G B E) - 'Feedback'


   Intro (0:00)
    Moderate Rock Q=120
    Em
   3/4
    Gtr I
    e E E  E E E   E E E  E E E   E E E  E E E   E E E  E E E  4x
||--0-0-7-10-7-0-|-0-0-5--7-5-0-|-0-0-5--7-5-0-|-0-0-5--7-5-0--||
||o--------------|--------------|--------------|--------------o||
||---------------|--------------|--------------|---------------||
||---------------|--------------|--------------|---------------||
||o--------------|--------------|--------------|--------------o||
||---------------|--------------|--------------|---------------||
|
|   Gtr II
|   E E E  E E E   E E E  E E E   E E E  E E E   E E E  E E E  4x
||----0-7-10-7-0-|---0-7-10-7-0-|---0-7-10-7-0-|---0-7-10-7-0--||
||o-5------------|-3------------|-1------------|-3------------o||
||---------------|--------------|--------------|---------------||
||---------------|--------------|--------------|---------------||
||o--------------|--------------|--------------|--------------o||
||---------------|--------------|--------------|---------------||


   Verse (0:28)
    E E E  E E E   E E E  E E E   E E E  E E E   E E E  E E E
||--0-0-7-10-7-0-|-0-0-5--7-5-0-|-0-0-5--7-5-0-|-0-0-5--7-5-0---||
||o--------------|--------------|--------------|---------------o||
||---------------|--------------|--------------|----------------||
||---------------|--------------|--------------|----------------||
||o--------------|--------------|--------------|---------------o||
||---------------|--------------|--------------|----------------||
|
|   E E E  E E E   E E E  E E E   E E E  E E E   E E E  E E E
||----0-7-10-7-0-|---0-7-10-7-0-|---0-7-10-7-0-|---0-7-10-7-0---||
||o-5------------|-3------------|-1------------|-3-------------o||
||---------------|--------------|--------------|----------------||
||---------------|--------------|--------------|----------------||
||o--------------|--------------|--------------|---------------o||
||---------------|--------------|--------------|----------------||


 Interlude (0:40)
  E
   <
   E  E  E  E  E  E    E  E  E  E  E  E
|-----0--------0----|-----0--------0----|
|--7-----7--8-----8-|--7-----7--5-----5-|
|-------------------|-------------------|
|-------------------|-------------------|
|-------------------|-------------------|
|-------------------|-------------------|
|
|  E  E  E  E  E  E    E  E  E  E  E  E
|-------------------|-------------------|
|-------------------|-------------------|
|----12-------12----|----12-------12----|
|-14----14-14----14-|-14----14-14----14-|
|-------------------|-------------------|
|-------------------|-------------------|


  D
   E  E  E  E  E  E    E  E  E  E  E  E
|-----0--------0----|-----0--------0----|
|--7-----7--8-----8-|--7-----7--8-----8-|
|-------------------|-------------------|
|-------------------|-------------------|
|-------------------|-------------------|
|-------------------|-------------------|
|
|  E  E  E  E  E  E    E  E  E  E  E  E
|-------------------|-------------------|
|-------------------|-------------------|
|----12-------12----|----12-------12----|
|-12----12-12----12-|-12----12-12----12-|
|-------------------|-------------------|
|-------------------|-------------------|


  B
   E  E  E  E  E  E    E  E  E  E  E  E
|-----0--------0----|-----0--------0----|
|--7-----7--8-----8-|--7-----7--5-----5-|
|-------------------|-------------------|
|-------------------|-------------------|
|-------------------|-------------------|
|-------------------|-------------------|
|
|  E  E  E  E  E  E    E  E  E  E  E  E
|-------------------|-------------------|
|----15-------15----|----15-------15----|
|-12----12-12----12-|-12----12-12----12-|
|-------------------|-------------------|
|-------------------|-------------------|
|-------------------|-------------------|


  C
   E  E  E  E  E  E    E  E  E  E  E  E
|-------------------|-------------------||
|--7--7--7--8--8--8-|--7--7--7--8S=7S=5-||
|-------------------|-------------------||
|-------------------|-------------------||
|-------------------|-------------------||
|-------------------|-------------------||
|
|  E  E  E  E  E  E    E  E  E  E  E  E
|----------15-------|-14-------14-------||
|----13-------13----|----13-------13----||
|-12----12-------12-|-------12-------12-||
|-------------------|-------------------||
|-------------------|-------------------||
|-------------------|-------------------||


   Verse 2 (0:53)
    Em                               B
    Q   Q.     E   +H         Q      Q   Q   Q     E E  E Q.
||-------------7-|-(7)-------------|-------------|-----10---------|
||o-----8--------|-----------(8)---|---------8---|---8----8-------|
||--9------------|-----------------|-----7-------|-7--------------|
||---------------|-----------------|-------------|----------------|
||o--------------|-----------------|-------------|----------------|
||---------------|-----------------|-------------|----------------|
|
|   E E E  E E E    E  E E E  E  E   E E E E E E   E E  E E  E E
||----0------0---|-----0------0----|---0-----0---|---0-------0----|
||o-7---7--8---8-|--7----7-5-----5-|-7---7-8---8-|-7----7-8----8--|
||---------------|-----------------|-------------|----------------|
||---------------|-----------------|-------------|----------------|
||o--------------|-----------------|-------------|----------------|
||---------------|-----------------|-------------|----------------|


  C
   E  E  E  E  E  E    E  E  E  E  E  E
|-------------------|-------------------|
|----15-------15----|----15-------15----|
|-12----12-12----12-|-12----12-12----12-|
|-------------------|-------------------|
|-------------------|-------------------|
|-------------------|-------------------|
|
|  E  E  E  E  E  E    E  E  E  E  E  E
|-----0--------0----|-----0--------0----|
|--7-----7--8-----8-|--7-----7--5-----5-|
|-------------------|-------------------|
|-------------------|-------------------|
|-------------------|-------------------|
|-------------------|-------------------|


  G/C
   E  E  E  E  E  E    E  E  E  E  E  E
|----------15-------|-14-------14--------||
|----13-------13----|----13-------13----o||
|-12----12-------12-|-------12-------12--||
|-------------------|--------------------||
|-------------------|-------------------o||
|-------------------|--------------------||
|
|  E  E  E  E  E  E    E  E  E  E  E  E
|-------------------|--------------------||
|--7--7--7--8--8--8-|--7--7--7--8S=7S=5-o||
|-------------------|--------------------||
|-------------------|--------------------||
|-------------------|-------------------o||
|-------------------|--------------------||


  Em
  e E E  E E E   e E E  E E E
|-0-0-7-10-7-0-|-0-0-7-10-7-0-||
|--------------|--------------||
|--------------|--------------||
|--------------|--------------||
|--------------|--------------||
|--------------|--------------||
|
| E E E  E E E   E E E  E E E
|--------------|--------------||
|-7-7-7--8-8-8-|-7-7-7--8-8-8-||
|--------------|--------------||
|--------------|--------------||
|--------------|--------------||
|--------------|--------------||


   Chorus (1:23, 2:24)
    $                                                          To Coda
    E5            B5            D5                  C5
    Gtr III
    E E E E E E   E E E E E E    E  E  E  E  E  E    E  E  E  E  E  E   4x
||--------------|-------------|-------------------|---------------------||
||o-------------|-------------|-------------------|--------------------o||
||--------------|-4-4-4-4-4-4-|--7--7--7--7--7--7-|--5--5--5--5--5--5---||
||--2-2-2-2-2-2-|-4-4-4-4-4-4-|--7--7--7--7--7--7-|--5--5--5--5--5--5---||
||o-2-2-2-2-2-2-|-2-2-2-2-2-2-|--5--5--5--5--5--5-|--3--3--3--3--3--3--o||
||--0-0-0-0-0-0-|-------------|-------------------|---------------------||
|
|   Gtr IV
|   E E E E E E   E E E E E E    E  E  E  E  E  E    E  E  E  E  E  E   4x
||--------------|-------------|-------------------|---------------------||
||o-7-7-7-8-8-8-|-7-7-7-8-8-8-|-10-10-10-12-12-12-|----------------10--o||
||--------------|-------------|-------------------|-12-12-12-12-12------||
||--------------|-------------|-------------------|---------------------||
||o-------------|-------------|-------------------|--------------------o||
||--------------|-------------|-------------------|---------------------||


   Verse 3 (1:51)
    Em                       D                      C5
    Gtr I                                         Gtr III
    E S S S S  S S S S S S   E S S S S S S S S  E   E q   E q     E q   E q
||--7---7-7-7--7-7-7-7-x-x-|-5---5-5-5-5-5-5-5/---|-------------|-------------|
||o-8---8-8-8--8-8-8-8-x-x-|-7---7-7-7-7-7-7-7/---|-------------|-------------|
||--9---9-9-9--9-9-9-9-x-x-|-7---7-7-7-7-7-7-7/---|-5-5---5-5---|-5-5---5-5---|
||--9---9-9-9--9-9-9-9-x-x-|-7---7-7-7-7-7-7-7/---|-5-5---5-5---|-5-5---5-5---|
||o-7-7-7-7-7--7-7-7-7-x-x-|-5-5-5-5-5-5-5-5-5/---|-3-3---3-3---|-3-3---3-3---|
||-------------------------|----------------------|-------------|-------------|
|
|   Gtr II
|   e E   E    E   E   E     E E   E   E   E    E   E E E E E E   E E E E E E
||--0-0---7---10---7---0---|-0-0---5---7---5----0-|-0-0-5-7-5-0-|-0-0-5-7-5-0-|
||o------------------------|----------------------|-------------|-------------|
||-------------------------|----------------------|-------------|-------------|
||-------------------------|----------------------|-------------|-------------|
||o------------------------|----------------------|-------------|-------------|
||-------------------------|----------------------|-------------|-------------|


  Em                       D                      C5
  Gtr I                                           Gtr III
  E S S S S  S S S S S S   E S S S S S S S S  E   E E E E E E   E E E E E E
|-7---7-7-7--7-7-7-7-x-x-|-5---5-5-5-5-5-5-5/---|-------------|--------------||
|-8---8-8-8--8-8-8-8-x-x-|-7---7-7-7-7-7-7-7/---|-------------|-------------o||
|-9---9-9-9--9-9-9-9-x-x-|-7---7-7-7-7-7-7-7/---|-5-5-5-5-5-5-|-5-5-5-5-5-5--||
|-9---9-9-9--9-9-9-9-x-x-|-7---7-7-7-7-7-7-7/---|-5-5-5-5-5-5-|-5-5-5-5-5-5--||
|-7-7-7-7-7--7-7-7-7-x-x-|-5-5-5-5-5-5-5-5-5/---|-3-3-3-3-3-3-|-3-3-3-3-3-3-o||
|------------------------|----------------------|-------------|--------------||
|
| e E   E    E   E   E     E E   E   E   E    E   E E E E E E   E E E E E E
|-0-0---7---10---7---0---|-0-0---5---7---5----0-|-0-0-5-7-5-0-|-0-0-5-7-5-0--||
|------------------------|----------------------|-------------|-------------o||
|------------------------|----------------------|-------------|--------------||
|------------------------|----------------------|-------------|--------------||
|------------------------|----------------------|-------------|-------------o||
|------------------------|----------------------|-------------|--------------||


                                                       D.S. al Coda
  Em                       D                      C5
  Gtr I                                         Gtr III
  E S S S S  S S S S S S   E S S S S S S S S  E   E q  E q    q  H
|-7---7-7-7--7-7-7-7-x-x-|-5---5-5-5-5-5-5-5/---|-----------|---------||
|-8---8-8-8--8-8-8-8-x-x-|-7---7-7-7-7-7-7-7/---|-----------|---------||
|-9---9-9-9--9-9-9-9-x-x-|-7---7-7-7-7-7-7-7/---|-5-5--5-5--|-5-------||
|-9---9-9-9--9-9-9-9-x-x-|-7---7-7-7-7-7-7-7/---|-5-5--5-5--|-5-------||
|-7-7-7-7-7--7-7-7-7-x-x-|-5-5-5-5-5-5-5-5-5/---|-3-3--3-3--|-3-------||
|------------------------|----------------------|-----------|---------||
|
| e E   E    E   E   E     E E   E   E   E    E   W           W
|-0-0---7---10---7---0---|-0-0---5---7---5----0-|-----------|---------||
|------------------------|----------------------|-----------|---------||
|------------------------|----------------------|-----------|---------||
|------------------------|----------------------|-----------|---------||
|------------------------|----------------------|-----------|---------||
|------------------------|----------------------|-----------|---------||


 Bridge (2:51)
  &
  EmB      C        Em
  Gtr I
  W        W        W        Q.    E   E   E
|--------|--------|--------|--------------<7>-|
|--------|--------|--------|----------<7>-----|
|--------|--------|--------|------<7>---------|
|--------|--------|--------|------------------|
|--------|--------|--------|------------------|
|--------|--------|--------|------------------|


  B             C          Em        D/E  C/E
  Gtr I
   +Q    H       W         W         Q.    E   E   E
|-(<7>)-------|----------|---------|--------------<7>-|
|-------------|----------|---------|----------<7>-----|
|-------------|----------|---------|------<7>---------|
|-------------|----------|---------|------------------|
|-------------|----------|---------|------------------|
|-------------|----------|---------|------------------|
|
| Gtr II
|   H.           H.        H.        W
|-------------|----------|---------|------------------|
|--12---------|-10-------|-8-------|------------------|
|-------------|----------|---------|------------------|
|-------------|----------|---------|------------------|
|-------------|----------|---------|------------------|
|-------------|----------|---------|------------------|


    D             G/E           Em
    H.            H.             E  E  E  E E  E    E E  E E E E   4x
||--5-----------|-7-----------|-----0-------0----|----0------0-----||
||o-7-----------|-8-----------|-12----12-12---12-|-10---10-8---0--o||
||--7-----------|-9-----------|------------------|-----------------||
||--------------|-------------|------------------|-----------------||
||o-------------|-------------|------------------|----------------o||
||--------------|-------------|------------------|-----------------||
|
|   E  E E Q.     E  E E Q.      Q.       E E  E    E E  E E E E   4x
||--------------|-------------|------------------|-----------------||
||o-7--0--------|-7--0--------|-----------7-8--8-|--7-8--8-7------o||
||-------7-0----|------7-0----|------------------|-----------9-7---||
||--------------|-------------|------------------|-----------------||
||o-------------|-------------|------------------|----------------o||
||--------------|-------------|------------------|-----------------||


  D            G/E          Em
                             <
  E E H        E E H         E  E  E  E E  E    E E  E E E E
|-----5------|-----7------|-----0-------0----|----0------0---|
|---7--------|---8--------|-12----12-12---12-|-10---10-8---0-|
|-7----------|-9----------|------------------|---------------|
|------------|------------|------------------|---------------|
|------------|------------|------------------|---------------|
|------------|------------|------------------|---------------|
|
|                                     <
| E E E Q.     E E E Q.      Q.       E E  E    E E  E E E E
|------------|------------|------------------|---------------|
|-7-0--------|-7-0--------|-----------7-8--8-|--7-8--8-7-----|
|-----7-0----|-----7-0----|------------------|-----------9-7-|
|------------|------------|------------------|---------------|
|------------|------------|------------------|---------------|
|------------|------------|------------------|---------------|


  D             G/E          Em
  H.            E E H         E  E  E  E  E      E    E  E  E  E  E  E
|-5-----------|-----7------|-----0--------0--------|-----0--------0----|
|-7-----------|---8--------|-12----12-12--------12-|-12----12-12----12-|
|-7-----------|-9----------|-----------------------|-------------------|
|-------------|------------|-----------------------|-------------------|
|-------------|------------|-----------------------|-------------------|
|-------------|------------|-----------------------|-------------------|
|
|                                                       Gtr IV
| E  E E Q.     E E E Q.      Q.       E  E      E    E  E  E  E  E  E
|-------------|------------|-----------------------|-------------------|
|-7--0--------|-7-0--------|-----------7--7------7-|--7--7--7--8--8--8-|
|------7-0----|-----7-0----|-----------------------|-------------------|
|-------------|------------|-----------------------|-------------------|
|-------------|------------|-----------------------|-------------------|
|-------------|------------|-----------------------|-------------------|
|
| Gtr III
|                                         <
| H.            W             H           E      E    E  E  E  E  E  E
|-5-----------|------------|--------------0------0-|--0--0--0--0--0--0-|
|-7-----------|------------|-------------12b14==12-|-12-12-12-12-12-12-|
|-7-----------|------------|-----------------------|-------------------|
|-------------|------------|-----------------------|-------------------|
|-------------|------------|-----------------------|-------------------|
|-------------|------------|-----------------------|-------------------|


   Verse 4 (3:46)
    Em                        D                      C5
    Gtr III
    E  S S S S  S S S S S S   E S S S S S S S S  E   E q   E q     E q   E q
||--7r---7-7-7--7-7-7-7-x-x-|-5---5-5-5-5-5-5-5/---|-------------|-------------|
||o-8----8-8-8--8-8-8-8-x-x-|-7---7-7-7-7-7-7-7/---|-------------|-------------|
||--9----9-9-9--9-9-9-9-x-x-|-7---7-7-7-7-7-7-7/---|-5-5---5-5---|-5-5---5-5---|
||--9----9-9-9--9-9-9-9-x-x-|-7---7-7-7-7-7-7-7/---|-5-5---5-5---|-5-5---5-5---|
||o-7--7-7-7-7--7-7-7-7-x-x-|-5-5-5-5-5-5-5-5-5/---|-3-3---3-3---|-3-3---3-3---|
||--------------------------|----------------------|-------------|-------------|
|
|   Gtr V
|   e  E   E    E   E   E     E E   E   E   E    E   E E E E E E   E E E E E E
||--0--0---7---10---7---0---|-0-0---5---7---5----0-|-0-0-5-7-5-0-|-0-0-5-7-5-0-|
||o-------------------------|----------------------|-------------|-------------|
||--------------------------|----------------------|-------------|-------------|
||--------------------------|----------------------|-------------|-------------|
||o-------------------------|----------------------|-------------|-------------|
||--------------------------|----------------------|-------------|-------------|


  Em                       D                      C5
  E S S S S  S S S S S S   E S S S S S S S S  E   E E E E E E   E E E E E E
|-7---7-7-7--7-7-7-7-x-x-|-5---5-5-5-5-5-5-5/---|-------------|--------------||
|-8---8-8-8--8-8-8-8-x-x-|-7---7-7-7-7-7-7-7/---|-------------|-------------o||
|-9---9-9-9--9-9-9-9-x-x-|-7---7-7-7-7-7-7-7/---|-5-5-5-5-5-5-|-5-5-5-5-5-5--||
|-9---9-9-9--9-9-9-9-x-x-|-7---7-7-7-7-7-7-7/---|-5-5-5-5-5-5-|-5-5-5-5-5-5--||
|-7-7-7-7-7--7-7-7-7-x-x-|-5-5-5-5-5-5-5-5-5/---|-3-3-3-3-3-3-|-3-3-3-3-3-3-o||
|------------------------|----------------------|-------------|--------------||
|
| e E   E    E   E   E     E E   E   E   E    E   E E E E E E   E E E E E E
|-0-0---7---10---7---0---|-0-0---5---7---5----0-|-0-0-5-7-5-0-|-0-0-5-7-5-0--||
|------------------------|----------------------|-------------|-------------o||
|------------------------|----------------------|-------------|--------------||
|------------------------|----------------------|-------------|--------------||
|------------------------|----------------------|-------------|-------------o||
|------------------------|----------------------|-------------|--------------||


   Out Chorus (4:13)
    E5            B5            D5                  C5
    E E E E E E   E E E E E E    E  E  E  E  E  E    E  E  E  E  E  E   3x
||--------------|-------------|-------------------|---------------------||
||o-------------|-------------|-------------------|--------------------o||
||--------------|-4-4-4-4-4-4-|--7--7--7--7--7--7-|--5--5--5--5--5--5---||
||--2-2-2-2-2-2-|-4-4-4-4-4-4-|--7--7--7--7--7--7-|--5--5--5--5--5--5---||
||o-2-2-2-2-2-2-|-2-2-2-2-2-2-|--5--5--5--5--5--5-|--3--3--3--3--3--3--o||
||--0-0-0-0-0-0-|-------------|-------------------|---------------------||
|
|   Gtr IV
|   E E E E E E   E E E E E E    E  E  E  E  E  E    E  E  E  E  E  E   3x
||--------------|-------------|-------------------|---------------------||
||o-7-7-7-8-8-8-|-7-7-7-8-8-8-|-10-10-10-12-12-12-|----------------10--o||
||--------------|-------------|-------------------|-12-12-12-12-12------||
||--------------|-------------|-------------------|---------------------||
||o-------------|-------------|-------------------|--------------------o||
||--------------|-------------|-------------------|---------------------||


  E5            B5            D5                  C5
  E E E E E E   E E E E E E    E  E  E  E  E  E     H.          +H.
|-------------|-------------|-------------------|------------|---------*|
|-------------|-------------|-------------------|------------|---------*|
|-------------|-4-4-4-4-4-4-|--7--7--7--7--7--7-|---5--------|--(5)----*|
|-2-2-2-2-2-2-|-4-4-4-4-4-4-|--7--7--7--7--7--7-|---5--------|--(5)----*|
|-2-2-2-2-2-2-|-2-2-2-2-2-2-|--5--5--5--5--5--5-|---3--------|--(3)----*|
|-0-0-0-0-0-0-|-------------|-------------------|------------|---------*|
|
| E E E E E E   E E E E E E    E  E  E  E  E  E     Q   H        H.
|-------------|-------------|-------------------|------------|---------*|
|-7-7-7-8-8-8-|-7-7-7-8-8-8-|-10-10-10-12-12-12-|------------|---------*|
|-------------|-------------|-------------------|--12--------|---------*|
|-------------|-------------|-------------------|------------|---------*|
|-------------|-------------|-------------------|------------|---------*|
|-------------|-------------|-------------------|------------|---------*|
|
| Gtr VI
|                                          <
| W             W              H           Q       +H.          +H.
|-------------|-------------|-------------15----|-(15)-------|-(15)----*|
|-------------|-------------|-------------------|------------|---------*|
|-------------|-------------|-------------------|------------|---------*|
|-------------|-------------|-------------------|------------|---------*|
|-------------|-------------|-------------------|------------|---------*|
|-------------|-------------|-------------------|------------|---------*|



Duration Legend
---------------
W - whole; H - half; Q - quarter; E - 8th; S - 16th; T - 32nd; X - 64th; a - acciaccatura
+ - note tied to previous; . - note dotted; .. - note double dotted
Uncapitalized letters represent notes that are staccato (1/2 duration)
Irregular groupings are notated above the duration line
Duration letters will always appear directly above the note/fret number it represents the
duration for.  Duration letters with no fret number below them represent rests.  Multi-
bar rests are notated in the form Wxn, where n is the number of bars to rest for.  Low
melody durations appear below the staff

Tablature Legend
----------------
 h   - hammer-on
 p   - pull-off
 b   - bend
 pb  - pre-bend
 r   - bend release (if no number after the r, then release immediately)
 /\  - slide into or out of (from/to "nowhere")
 s   - legato slide
 S   - shift slide
<n> - natural harmonic
[n]  - artificial harmonic
n(n) - tapped harmonic
 ~   - vibrato
 tr  - trill
 T   - tap
 TP  - trem. picking
 PM  - palm muting
\n/  - tremolo bar dip; n = amount to dip
 \n  - tremolo bar down
 n/  - tremolo bar up
/n\  - tremolo bar inverted dip
 =   - hold bend; also acts as connecting device for hammers/pulls
 <> - volume swell (louder/softer)
 x   - on rhythm slash represents muted slash
 o   - on rhythm slash represents single note slash

Misc Legend
-----------
 |  - bar
||  - double bar
||o - repeat start
o|| - repeat end
*|  - double bar (ending)
 :  - bar (freetime)
 $  - Segno
 &  - Coda
Tempo markers - <E/E./Q/Q./H/H.> = BPM(8/16=s8/s16), where s8 = swing 8ths, s16 = swing 16ths


*** GuitarCats.com ***