Tabs by Artist
0-9 A B C D E F G H I J K L M N O P Q R S T U V W X Y Z

ONE ARMED SCISSOR

As recorded by At The Drive-In

(From the 2000 Album RELATIONSHIP OF COMMAND)

Tablature (Tab) for Guitar
Transcribed by James Godbold



Em7

x 7 5 7 8 x
Em7(type 2)

x 7 x 7 0 x
E

x x 9 0 9 x
Am9

x 12 10 0 0 x
Dadd4

x 5 4 0 3 x
Amadd9

x 12 10 x 12 x
C5

8 10 x x x x
Cmaj7

8 10 x 0 0 x
G

x 10 9 0 0 x
Gadd2/F#

x 9 7 0 0 x
Em

x 7 5 0 0 x
Am

x 12 10 x x x
GIX

x 10 9 x x x
F#m

x 9 7 x x x
EmV(type 2)

x 7 5 x x x
Gmaj7

x 10 7 7 7 x
Cadd9

8 7 0 0 x x
B7

7 6 7 8 x x
Gmaj7(type 2)

x 10 x 7 7 x
Cmaj7VII

8 7 x 0 0 x



Gtr I (E A D G B E) - 'Untitled'

Gtr II (E A D G B E) - 'Untitled'


 Intro
  Q=164
  Em7         Em7(tyEm72)       Em7(typeE2)
 4/4
  Gtr I
  E E E E E E E E   E E E E E E E E
|-----------------|-----------------|
|-8-8-8-8-8---0---|-8-8-8-8-8---0---|
|-7-7-7-7-7---7---|-7-7-7-7-7---7---|
|-5-5-5-5-5---x---|-5-5-5-5-5---x---|
|-7-7-7-7-7---7---|-7-7-7-7-7---7---|
|-----------------|-----------------|
|
| Gtr II
| E E E E E E E E   E E E E E E E E
|-----------------|-----------------|
|-----------------|-----------------|
|-7-7-7-7-7---7---|-7-7-7-7-7---7---|
|-x-x-x-x-x---x---|-x-x-x-x-x---x---|
|-7-7-7-7-7---7---|-7-7-7-7-7---7---|
|-----------------|-----------------|


                            E
   3/4
     E  E  E   E   E  E  3x  E  E  E   E   E  E
||-----------<12>-----0--||----------<12>-----0-||
||o--9----12------12----o||--9--9-12------12----||
||---x-------------------||--x--x---------------||
||---9-------------------||--9--9---------------||
||o---------------------o||---------------------||
||-----------------------||---------------------||
|
|    E  E  E   E   E  E  3x  E  E  E   E   E  E
||-----------------------||---------------------||
||o------------0--------o||------------0--------||
||---------0-------0-----||--------0-------0----||
||-----10------------10--||----10------------10-||
||o-12------------------o||-12------------------||
||-----------------------||---------------------||


   Verse
    E
     E  E  E E  E E    E E  E  E  E  E
||-----------0----0-|----0-----0-----0-|
||o--9----12---12---|-12---12----12----|
||---x--------------|------------------|
||---9--------------|------------------|
||o-----------------|------------------|
||------------------|------------------|
|
|    Q     Q    Q      Q    Q     Q
||------------------|------------------|
||o-----------------|------------------|
||------------------|------------<7>---|
||------------------|------<7>---------|
||o-12\-------------|------------------|
||------------------|------------------|


                   <
   E       E  E E  E E    E  E  E E  E  E
|----------0----0----0-|-----0----0-----0--|
|-12b12.5====12---12---|-12----12---12r----|
|----------------------|-------------------|
|----------------------|-------------------|
|----------------------|-------------------|
|----------------------|-------------------|
|
|  H.                    +H.
|----------------------|-------------------|
|-<7>------------------|-(7)---------------|
|----------------------|-------------------|
|----------------------|-------------------|
|----------------------|-------------------|
|----------------------|-------------------|


  1.,2.,3.
   E  E  E   E   E  E    E  E  E E  E  E
|----------<12>-----0-|----------0-----0-|
|--9----12------12----|--9----12---12----|
|--x------------------|--x---------------|
|--9------------------|--9---------------|
|---------------------|------------------|
|---------------------|------------------|
|
|  E  E  E   E   E  E    E  E  E E  E  E
|---------------------|------------------|
|------------0--------|----------0-------|
|--------0-------0----|--------0----0----|
|----10------------10-|----10---------10-|
|-12------------------|-12---------------|
|---------------------|------------------|


   E  E  E E  E  E    E  E  E E  E  E
|----------0-----0-|----------0-----0--||
|--9----12---12----|--9--9-12---12----o||
|--x---------------|--x--x-------------||
|--9---------------|--9--9-------------||
|------------------|------------------o||
|------------------|-------------------||
|
|  E  E  E E  E  E    E  E  E E  E  E
|------------------|-------------------||
|----------0-------|----------0-------o||
|--------0----0----|--------0----0-----||
|----10---------10-|----10---------10--||
|-12---------------|-12---------------o||
|------------------|-------------------||


   Chorus
    4.
    $
    Em7         Em7(tyDadd4
   4/4
    E E E E E E E E   E E E E E E E  E
||------------------|------------------|
||o-8-8-8-8-8---0---|-3-3-3-3-3------0-|
||--7-7-7-7-7---7---|-0-0-0-0-0--------|
||--5-5-5-5-5---x---|-4-4-4-4-4---5/---|
||o-7-7-7-7-7---7---|-5-5-5-5-5--------|
||------------------|------------------|
|
|   E E E E E E E E   E E E E E E E  E
||------------------|------------------|
||o-----------------|------------------|
||--7-7-7-7-7---7---|-7-7-7-7-7---7s10-|
||--x-x-x-x-x---x---|-4-4-4-4-4--------|
||o-7-7-7-7-7---7---|-5-5-5-5-5---5s=8-|
||------------------|------------------|


                                          To Coda
  Amadd9               C5         Cmaj7
   Q   E  E  E  E  E S  S    Q     E  E  E  E  E E  4x
|-------------------------|-------------------------||
|-----12-12-12-12--0-x----|--------0--0--0--0--0-x-o||
|------x--x--x--x--0-x----|--------0--0--0--0--0-0--||
|-10--10-10-10-10---------|--------x--x--x--x--x----||
|-12--12-12-12-12------10-|-10----10-10-10-10-10---o||
|-----------------------8-|--8-----8--8--8--8--8----||
|
|  Q   E  E  E  E  E E       E  E  E  E  E  E  E E  4x
|------0--0--0--0--0------|-------------------------||
|------x--x--x--x--x------|-----------------0--0-0-o||
|-10--10-10-10-10-10------|-----------------0--0-0--||
|--7---7--7--7--7--7-0----|----------------------0--||
|--8---8--8--8--8--8-0----|-10-10-10-10-10-10-10---o||
|-------------------------|--8--8--8--8--8--8--8----||


   *
    Am9
     E  E E E  E  E E E    E  E E E  E  E  E   E
||----------------------|-------------------------|
||o---------0-----------|---------0---------------|
||-------------0------0-|------------x--x--x---x--|
||--------5---------x-x-|-------5----x--x--x---x--|
||o-----7-----------x-7-|-----7------x--x-<7>-<7>-|
||----------------------|-------------------------|
|
|    E  E E E  E  E E E    E  E E E  E  E  E   E
||----------------------|-------------------------|
||o---------0---------0-|---------0------------0--|
||--------0---------0---|-------0----------0------|
||-----10--------10-----|----10--------10---------|
||o-12--------12--------|-12--------12------------|
||----------------------|-------------------------|


            G          Gadd2/F#Em
   E  E E E  E E E E   E E E E E E E  E
|--------------------|---------------------||
|---------0--------0-|--------------------o||
|--x----0--------0---|-x-----0-x-----------||
|--x--5--------------|-x---0---x-5p4p=0----||
|-----7--------5-----|---2----------------o||
|--------------------|---------------------||
|
|  E  E E E  E E E E   E E E E E E E  E
|--------------------|---------------------||
|---------0--------0-|-------0-------(0)--o||
|-------0--------0---|-----0-------0-------||
|----10--------9-----|---7-----5-5---------||
|-12--------10-------|-9-------7-7--------o||
|--------------------|---------------------||


   2nd Verse
    Am                        GIX
     E  E  E  E  E  E  E  E    E  E  E  E  E  E  Q
||-----12--0--------0-------|-12--0--------0----------|
||o----------12-15--------0-|-------12-15--------0----|
||--------------------14----|----------------14-------|
||--------------------------|-------------------------|
||o-------------------------|-------------------------|
||--------------------------|-------------------------|
|
|    PM------------------------------------------------
|    E  E  E  E  E  E  E  E    E  E  E  E  E  E  E  E
||--------------------------|-------------------------|
||o-------------------------|-------------------------|
||--------------------------|-------------------------|
||--10-10-10-10-10-10-10-10-|--9--9--9--9--9--9--9--9-|
||o-12-12-12-12-12-12-12-12-|-10-10-10-10-10-10-10-10-|
||--------------------------|-------------------------|


  F#m                     Em
  +E   E E  E  E E  E E    E E  E  E  E  E  Q
|-----12-0-------0------|----0--------------------||
|-(0)------12-15------0-|-12---------12-13-12----o||
|------------------14---|------12-11--------------||
|-----------------------|-------------------------||
|-----------------------|------------------------o||
|-----------------------|-------------------------||
|
|---------------------------------------------|
|  E   E E  E  E E  E E    E E  E  E  E  E  E E
|-----------------------|-------------------------||
|-----------------------|------------------------o||
|-----------------------|-------------------------||
|--7---7-7--7--7-7--7-7-|--5-5--5--5--5--5--5-5---||
|--9---9-9--9--9-9--9-9-|--7-7--7--7--7--7--7-7--o||
|-----------------------|-------------------------||


    Am9                       G
     E  E  E  E  E  E  E  E    E  E  E  E  E  E  Q
||-----12--0--------0-------|-12--0--------0----------|
||o----------12-15--------0-|-------12-15--------0----|
||--------------------14----|----------------14-------|
||--------------------------|-------------------------|
||o-------------------------|-------------------------|
||--------------------------|-------------------------|
|
|    E  E  E  E  E  E  E  E    E  E  E  E  E  E  E  E
||--------------------------|-------------------------|
||o--0--0--0--0--0--0--0--0-|--0--0--0--0--0--0--0--0-|
||---0--0--0--0--0--0--0--0-|--0--0--0--0--0--0--0--0-|
||--10-10-10-10-10-10-10-10-|--9--9--9--9--9--9--9--9-|
||o-12-12-12-12-12-12-12-12-|-10-10-10-10-10-10-10-10-|
||--------------------------|-------------------------|


  Gadd2/F#                Em
  +E   E E  E  E E  E E    E E  E  E  E  E  Q
|-----12-0-------0------|----0--------------------||
|-(0)------12-15------0-|-12---------12-13-12----o||
|------------------14---|------12-11--------------||
|-----------------------|-------------------------||
|-----------------------|------------------------o||
|-----------------------|-------------------------||
|
|  E   E E  E  E E  E E    E E  E  E  E  E  E E
|-----------------------|-------------------------||
|--0---0-0--0--0-0--0-0-|--0-0--0--0--0--0--0-0--o||
|--0---0-0--0--0-0--0-0-|--0-0--0--0--0--0--0-0---||
|--7---7-7--7--7-7--7-7-|--5-5--5--5--5--5--5-5---||
|--9---9-9--9--9-9--9-9-|--7-7--7--7--7--7--7-7--o||
|-----------------------|-------------------------||


    EmV(type 2)                      GIX
     E  E  E  E  E       E     E E     E   E  E  E        E  E   E E
||---------------------------------|-<12>----------------------------|
||o----12-12-12-12b12.5-12b13----0-|---0--12-12-12b12.5==12-12r----0-|
||------0--0--0---------------14-0-|---0---0-----------------0--14-0-|
||---------------------------------|---------------------------------|
||o--------------------------------|---------------------------------|
||---------------------------------|---------------------------------|
|
|    PM------|                         PM-------|
|    E  E  E  E  H                     E   E  E  E        H
||---------------------------------|---------------------------------|
||o-------------13-----------------|---------------------12----------|
||---------------------------------|---------------------------------|
||--10-10-10-10-10-----------------|---9---9--9--9--------9----------|
||o-12-12-12-12--------------------|--10--10-10-10-------------------|
||---------------------------------|---------------------------------|


  Cmaj7                             B7
  E   E   E  E  E       E   E   E   E E  E  E   E     E  Q
|---<12>--------0-------0---------|---------------------------||
|-----0--12-12-12b12.5-12-------0-|-0-0--------12----13-12---o||
|-0---0--------------------14---0-|-0-0-12-11--11-------11----||
|---------------------------------|---------------------------||
|---------------------------------|--------------------------o||
|---------------------------------|---------------------------||
|
| PM--------|
| E   E   E  E  Q          +Q       E E  E  E   Q        Q
|--------------10---------(10)\---|---------------------------||
|--------------10---------(10)\---|--------------------------o||
|---------------------------------|-----------/12b13-----0----||
|-7---7---7--7--------------------|-5-5--0--0-----------------||
|-9---9---9--9--------------------|-7-7--0--0----------------o||
|---------------------------------|---------------------------||


   *
    Am
     E      E  E  E   E  E  E  E
||---0------0--0--0---0--0--0--0-|
||o-12-----12-12-12--12-12-12-12-|
||--14b16==14-14-14r-14-14-14-14-|
||-------------------------------|
||o------------------------------|
||-------------------------------|
|
|    E      E  E  E   E  E  E  E
||-------------------------------|
||o------------------------------|
||-------------------------------|
||--10-----10-10-10--10-10-10s=9-|
||o-12-----12-12-12--12-12-12s10-|
||-------------------------------|


  GIX                            F#m
   E      E  E  E   E  E  E  E    E  E  E  E  E  E E E
|--0------0--0--0---0--0--0--0-|-----------------------|
|-12-----12-12-12--12-12-12--x-|--0--0--0--0--0--0-0-0-|
|-14b16==14-14-14r-14-14-14-12-|-12-12-12-12-11-11-0-0-|
|------------------------------|-------------------0-0-|
|------------------------------|-----------------------|
|------------------------------|-----------------------|
|
|  E      E  E  E   E  E  E  E    E  E  E  E  E  E E E
|------------------------------|-----------------------|
|------------------------------|-----------------------|
|------------------------------|-----------------------|
|--9------9--9--9---9--9--9s=7-|--7--7--7--7--7--7-7s5-|
|-10-----10-10-10--10-10-10s=9-|--9--9--9--9--9--9-9s7-|
|------------------------------|-----------------------|


  1.                        2.
                                                               D.S. al Coda
  EmV(type 2)               EmV(type 2)
  E E  E  E  E  E  E  E      E  E  E  E  E  E  E  E    E  E  E  E  E  E  E  e
|------------------------||-------------------------|-------------------------||
|-0-0--0--0-13-13-13-12-o||-------------------------|-------------------------||
|-0----0--0--0--0--0-----||-16-16-16-16-16-16-16-17-|-17-17-17-17-17-17-17-17-||
|-0---12-12--0--0--0-----||--x--x--x--x--x--x--x--x-|--x--x--x--x--x--x--x--x-||
|-----------------------o||-14-14-14-14-14-14-14-15-|-15-15-15-15-15-15-15-15-||
|------------------------||-------------------------|-------------------------||
|
|                            PM------------------|
| E E  E  E  E  E  E  E      E  E  E  E  E  E  E  E    E  E  E  E  E  E  E  E
|------------------------||-------------------------|-------------------------||
|-----------------------o||-------------------------|-------------------------||
|------------------------||-------------------------|-------------------------||
|-5-5--5--5--5--5--5s10--||--5--5--5--5--5--5--5--5-|--5--5--5--5--5--5--5--5-||
|-7-7--7--7--7--7--7s12-o||--7--7--7--7--7--7--7--7-|--7--7--7--7--7--7--7--7-||
|------------------------||-------------------------|-------------------------||


   Bridge
    &
    EmV(type 2)          Gmaj7
                          |--3---|
      Q   Q   E E  E E    Q Q    Q  E E  E  E
||---------------------|----------------------|
||o-----------0----0---|--0---------7-7--7--7-|
||--------------0----0-|------------7-7--7--7-|
||---------------------|---------7------------|
||o------10------------|----9-----------------|
||--/12----------------|----------------------|
|
|     q   q   q    q      q    q    q    E  E
||---------------------|----------------------|
||o--------------------|----------------------|
||---16--16--16---16---|-16---16---16---16s14-|
||----x---x---x----x---|--x----x----x----x----|
||o--14--14--14---14---|-14---14---14---14s12-|
||---------------------|----------------------|


  Cadd9               B7
                       |---3---|
   Q   Q   E E  E E   +Q  Q    Q  Q   E  E
|-------------------|-----------------------|
|-------------------|-----------------------|
|----------0----0---|-------------8---------|
|------------0----0-|-(0)-------------7-----|
|------7------------|----------6---------6--|
|--8----------------|-----7-----------------|
|
|  q   q   q    q      q     q    q   E  E
|-------------------|-----------------------|
|-------------------|-----------------------|
|-14--14--14---14---|-14----14---14--14s16--|
|--x---x---x----x---|--x-----x----x---x-----|
|-12--12--12---12---|-12----12---12--12s14--|
|-------------------|-----------------------|


  EmV(type 2)         Gmaj7               Cadd9            B7
   Q   Q   E E  E E    Q.     E  Q   Q    Q  Q  E  E E E   Q.    E Q  E E
|-------------------|-------------------|----------------|-----------------||
|----------0----0---|------------7------|----------------|----------------o||
|------------0----0-|---------7------7--|-------0----0---|---------8-------||
|-------------------|-------------------|----------0---0-|------------7----||
|-----10------------|-10----------------|----7-----------|-------6------6-o||
|-12----------------|-------------------|-8--------------|-7---------------||
|
|  q   q   q    q      q    q    q   q    q  q  E  E q     q   q   q  q
|-------------------|-------------------|----------------|-----------------||
|-------------------|-------------------|----------------|----------------o||
|-12--12--12---12---|-11---11---11--11--|-9--9--9s11s9---|-9---9---8--9----||
|--x---x---x----x---|--x----x----x---x--|-x--x-----------|-x---x---x--x----||
|-10--10--10---10---|--9----9----9---9--|-7--7--7s=9s7---|-7---7---6--7---o||
|-------------------|-------------------|----------------|-----------------||


  EmV(type 2)          Gmaj7
   Q   Q   E E  E  E    Q.     E  Q   Q
|--------------------|---------------------|
|----------0----0----|------------7--------|
|------------0-----0-|---------7------7----|
|--------------------|---------------------|
|-----10-------------|-10------------------|
|-12-----------------|---------------------|
|
|  q   q   q    E  E    q    q    q   E  E
|--------------------|---------------------|
|-----------------15-|---------------------|
|-16--16--16---16----|-16---16---16--16s14-|
|--x---x---x----x----|--x----x----x---x----|
|-14--14--14---14----|-14---14---14--14s12-|
|--------------------|---------------------|


  Cadd9                B7
   Q   Q   E E  E  E    Q.     E  Q   E  E
|--------------------|---------------------|
|--------------------|---------------------|
|----------0----0----|------------8--------|
|------------0-----0-|----------------7----|
|------7-------------|---------6---------6-|
|--8-----------------|--7------------------|
|
|  q   q   q    E  E    q    q    q   E  E
|--------------------|---------------------|
|-----------------15-|---------------------|
|-14--14--14---14----|-14---14---14--14s16-|
|--x---x---x----x----|--x----x----x---x----|
|-12--12--12---12----|-12---12---12--12s14-|
|--------------------|---------------------|


  EmV(type 2)         Gmaj7
   Q   Q   E E  E E    E Q    E  Q   E E
|-------------------|--------------------|
|----------0----0---|----7----7--7---0-0-|
|------------0----0-|----7----7--7---0-0-|
|-------------------|----7----7--7-------|
|-----10------------|-10-----------------|
|-12----------------|--------------------|
|
|  q   q   q    e E    q    q    q   e E
|-------------------|--------------------|
|-------------------|--------------------|
|-12--12--12---12-0-|-11---11---11--11s9-|
|--x---x---x----x---|--x----x----x---x---|
|-10--10--10---10---|--9----9----9---9s7-|
|-------------------|--------------------|


  Cadd9                      B7
  Q  E E E     E E       E   Q           E E E E E E
|--------0-----0-0-------0-|-------------------------||
|-0--0-0-0-----0-0-------0-|-------------0---0-0-0-0-||
|-0--0-0-0-----0-0-------0-|-------------x---x-x-x-x-||
|-x--x-x-x-----x-x-------x-|-7-----------7---7-7-7-7-||
|-7--7-7-7-----7-7-------7-|-6-----------6---6-6-6-6-||
|-8--8-8-8-----8-8-------8-|-7-----------7-7-7-7-7-7-||
|
| Q  Q   Q       Q           E     E     E E E E E E
|--------------------------|-------------------------||
|--------------------------|-------------------------||
|-9--9---9b10====9b10.5====|=9b11==9b12==9-9-9-9-9r9-||
|--------------------------|-------------------------||
|--------------------------|-------------------------||
|--------------------------|-------------------------||


   *
    EmV(type 2)               Gmaj7(type 2)            Cmaj7VII
     Q     E  E  E  E  E  E    E  E  E  E  E  E E  E   Q.     E +E  E E E
||--------------------------|------------------------|-------------------|
||o--------0--0--0--0--0--0-|--7--7--7--7--7--7-0--7-|--------------0-0--|
||---------0--0--0--0--0--0-|--7--7--7--7--7--7-0--7-|--------0-(0)-0-0--|
||---------x--x--x--x--x--x-|--7--7--7--7--7--7----7-|--------x-----x-x--|
||o-------10-10-10-10-10-10-|-10-10-10-10-10-10---10-|-7------7-(7)-7-7-0|
||--12----12-12-12-12-12-12-|------------------------|-8------8-(8)-8-8--|
|
|    E  E  E  E  E  E  E  E    E  E  E  E  E  E E  E   E  E E E  E  E E E
||---0--0--0--0--0--0--0--0-|--0--0--0--0--0--0------|----5-5-5--5--5-5-5|
||o-12-12-12-12-12-12-12-12-|-10-10-10-10-10-10-0--0-|-8--8-8-8--8--8-8-8|
||--------------------------|-------------------0--0-|-------------------|
||--------------------------|------------------------|-------------------|
||o-------------------------|------------------------|-------------------|
||--------------------------|------------------------|-------------------|


  1.                  2.
  B7                  B7
                        PM--------|
  Q   E E E E E E     E E E E E E E E
|------------------||-----------------||
|-----0-0-0-0-0-0-o||-----------------||
|-----x-x-x-x-x-x--||---------------8-||
|-7---7-7-7-7-7-7--||-7-7-7-7-7-7-7-7-||
|-6---6-6-6-6-6-6-o||-6-6-6-6-6-6-6-6-||
|-7---7-7-7-7-7-7--||-7-7-7-7-7-7-7-7-||
|
|                     PM------------|
| E E E E E E E E     E E E E E E E E
|-5-5-5-5-5-5-0-0--||-----------------||
|-7-7-7-7-7-7-0-0-o||-----------------||
|-------------0-0--||-----------------||
|------------------||-9-9-9-9-9-9-9-9-||
|-----------------o||-9-9-9-9-9-9-9-9-||
|------------------||-7-7-7-7-7-7-7-7-||


   Chorus
    Em7         Em7(tyDadd4
    E E E E E E E E   E E E E E E E  E
||------------------|------------------|
||o-8-8-8-8-8---0---|-3-3-3-3-3------0-|
||--7-7-7-7-7---7---|-0-0-0-0-0--------|
||--5-5-5-5-5---x---|-4-4-4-4-4---5/---|
||o-7-7-7-7-7---7---|-5-5-5-5-5--------|
||------------------|------------------|
|
|   E E E E E E E E   E E E E E E E  E
||------------------|------------------|
||o-----------------|------------------|
||--7-7-7-7-7---7---|-7-7-7-7-7---7s10-|
||--x-x-x-x-x---x---|-4-4-4-4-4--------|
||o-7-7-7-7-7---7---|-5-5-5-5-5---5s=8-|
||------------------|------------------|


  Amadd9               C5         Cmaj7
   Q   E  E  E  E  E S  S    Q     E  E  E  E  E E  4x
|-------------------------|-------------------------||
|-----12-12-12-12--0-x----|--------0--0--0--0--0-x-o||
|------x--x--x--x--0-x----|--------0--0--0--0--0-0--||
|-10--10-10-10-10---------|--------x--x--x--x--x----||
|-12--12-12-12-12------10-|-10----10-10-10-10-10---o||
|-----------------------8-|--8-----8--8--8--8--8----||
|
|  Q   E  E  E  E  E E       E  E  E  E  E  E  E E  4x
|------0--0--0--0--0------|-------------------------||
|------x--x--x--x--x------|-----------------0--0-0-o||
|-10--10-10-10-10-10------|-----------------0--0-0--||
|--7---7--7--7--7--7-0----|----------------------0--||
|--8---8--8--8--8--8-0----|-10-10-10-10-10-10-10---o||
|-------------------------|--8--8--8--8--8--8--8----||


    Amadd9                  Cmaj7                     Em7         Em7(type 2)
     E  E  E  E  E  E Q      E  E  E  E  E  E E E     E E E E E E Q
||------------------------|--0--0--0--0--0--0------||----------------*|
||o-12-12-12-12-12-12-0---|--0--0--0--0--0--0-0-0-o||-8-8-8-8-8------*|
||---x--x--x--x--x--x-0---|--0--0--0--0--0--0-0-0--||-x-x-x-x-x---0--*|
||--10-10-10-10-10-10-----|--x--x--x--x--x--x------||-5-5-5-5-5---x--*|
||o-12-12-12-12-12-12-----|-10-10-10-10-10-10-----o||-7-7-7-7-7---7--*|
||------------------------|--8--8--8--8--8--8------||----------------*|
|
|    E  E  E  E  E  E E E    E  E  E  E  E  E E E     E E E E E E q
||------------------------|------------------------||----------------*|
||o--------0--0--0--0-----|-----------------------o||----------------*|
||--10-10-10-10-10-10-x-0-|-10-10-10-10-10-10-x----||-7-7-7-7-7---7--*|
||---x--x--x--x--x--x-x---|-10-10-10-10-10-10-x----||-x-x-x-x-x---x--*|
||o--8--8--8--8--8--8-x---|--8--8--8--8--8--8---0-o||-7-7-7-7-7---7--*|
||------------------------|--8--8--8--8--8--8---0--||----------------*|



Duration Legend
---------------
W - whole; H - half; Q - quarter; E - 8th; S - 16th; T - 32nd; X - 64th; a - acciaccatura
+ - note tied to previous; . - note dotted; .. - note double dotted
Uncapitalized letters represent notes that are staccato (1/2 duration)
Irregular groupings are notated above the duration line
Duration letters will always appear directly above the note/fret number it represents the
duration for.  Duration letters with no fret number below them represent rests.  Multi-
bar rests are notated in the form Wxn, where n is the number of bars to rest for.  Low
melody durations appear below the staff

Tablature Legend
----------------
 h   - hammer-on
 p   - pull-off
 b   - bend
 pb  - pre-bend
 r   - bend release (if no number after the r, then release immediately)
 /\  - slide into or out of (from/to "nowhere")
 s   - legato slide
 S   - shift slide
<n> - natural harmonic
[n]  - artificial harmonic
n(n) - tapped harmonic
 ~   - vibrato
 tr  - trill
 T   - tap
 TP  - trem. picking
 PM  - palm muting
\n/  - tremolo bar dip; n = amount to dip
 \n  - tremolo bar down
 n/  - tremolo bar up
/n\  - tremolo bar inverted dip
 =   - hold bend; also acts as connecting device for hammers/pulls
 <> - volume swell (louder/softer)
 x   - on rhythm slash represents muted slash
 o   - on rhythm slash represents single note slash

Misc Legend
-----------
 |  - bar
||  - double bar
||o - repeat start
o|| - repeat end
*|  - double bar (ending)
 :  - bar (freetime)
 $  - Segno
 &  - Coda
Tempo markers - <E/E./Q/Q./H/H.> = BPM(8/16=s8/s16), where s8 = swing 8ths, s16 = swing 16ths


*** GuitarCats.com ***