Tabs by Artist
0-9 A B C D E F G H I J K L M N O P Q R S T U V W X Y Z

QUARANTINED

As recorded by At The Drive-In

(From the 2000 Album RELATIONSIP OF COMMAND)

Tablature (Tab) for Guitar
Transcribed by Eoin Watson (watsy@nme.com)
Words and Music by At The Drive-In


Em

x x 14 12 12 12
D

x x 12 11 10 10
Am

x x 14 14 13 12
E

0 7 x 9 x x
EmX

0 10 x 12 x x
Esus4

0 12 x 14 x x
Emadd4/A

x 0 7 9 8 x
Cadd6

8 x 7 9 x x



Gtr I (E A D G B E) - 'Omar'

Gtr II (E A D G B E) - 'Jim'

Gtr III (E A D G B E) - 'Clean'

Gtr IV (E A D G B E) - 'Piano'


   Intro
    Q=130
   4/4
    Gtr II
    W          W          W          W
||-----------|----------|----------|-------||
||o----------|----------|----------|------o||
||-----------|----------|----------|-------||
||-----------|----------|----------|-------||
||o----------|----------|----------|------o||
||-----------|----------|----------|-------||


           Em                                     D
    Gtr III
    H      Q   +Q     +W                H         Q   +Q     +W
           |    |      |                          |    |      |
           /    /      /                          /    /      /

    Gtr II
    PM--|                               PM----|
    E E Q  H          +W                E E   Q   H          +W
||------------------|-----------------|--------------------|-----------------|
||o-----------------|-----------------|--------------------|-----------------|
||------------------|-----------------|--------------------|-----------------|
||------------------|-----------------|--------------------|-----------------|
||o--------7--------|-(7)-------------|-----------5--------|-(5)-------------|
||--0-0-0-----------|-----------------|-0-0---0------------|-----------------|
|
|   Gtr I
|                      >                                      >
|          |--3---|    |-3--| |-3-|     |---3---| |--3---|    |-3--| |-3-|
|   H      q q    q    q  q q q q q     q   q   q q q    q    q  q q q q q
||---------7-7----7-|--7--7-7-7-7-7---|-7---7---7-5-5----5-|--5--5-5-5-5-5---|
||o--------8-8----8-|--8--8-8-8-8-8---|-8---8---8-7-7----7-|--7--7-7-7-7-7---|
||---------9-9----9-|--9--9-9-9-9-9---|-9---9---9-7-7----7-|--7--7-7-7-7-7---|
||------------------|-----------------|--------------------|-----------------|
||o-----------------|-----------------|--------------------|-----------------|
||------------------|-----------------|--------------------|-----------------|


  1.,2.
            Am
  H         Q   +Q     +W
            |    |      |
            /    /      /

  PM----|
  E E   Q   H          +H      +Q    Q
|--------------------|--------------------|
|--------------------|--------------------|
|--------------------|--------------------|
|--------------------|--------------------|
|--------------------|--------------------|
|-0-0---0---5--------|-(5)-----(5)---5S===|
|
|                       >
| |---3---| |--3---|    |-3--|  |--3---|
| q   q   q q q    q    q  q q  q  q   q
|-5---5---5-3-3----3-|--3--3-3--3--5---5--|
|-7---7---7-5-5----5-|--5--5-5--5--7---7--|
|-7---7---7-5-5----5-|--5--5-5--5--7---7--|
|--------------------|--------------------|
|--------------------|--------------------|
|--------------------|--------------------|


  D
   Q   +Q   +H         Q   +Q    +H
   |    |    |         |    |     |
   /    /    /         /    /     /

   W                   H         +H         3x
|-------------------|-----------------------||
|-------------------|----------------------o||
|-------------------|-----------------------||
|-------------------|-----------------------||
|-------------------|----------------------o||
|-10----------------|-10--------(10)\-------||
|
|  >                   >
|  |--3---|  |-3-|     |--3---|   |--3--|
|  q q    q  q q q     q q    q   q   q q   3x
|--5-5----5--5-5-5--|--5-5----5---5---5-5---||
|--7-7----7--7-7-7--|--7-7----7---7---7-7--o||
|--7-7----7--7-7-7--|--7-7----7---7---7-7---||
|-------------------|-----------------------||
|-------------------|----------------------o||
|-------------------|-----------------------||


  3.
            Em
  H         Q   +Q     +W
            |    |      |
            /    /      /

  PM----|
  E E   Q   H          +H      +Q    Q
|--------------------|--------------------|
|--------------------|--------------------|
|--------------------|--------------------|
|--------------------|--------------------|
|--------------------|--------------------|
|-0-0---0---5--------|-(5)-----(5)---5S===|
|
|                       >
| |---3---| |--3---|    |-3--|  |--3---|
| q   q   q q q    q    q  q q  q  q   q
|-5---5---5-3-3----3-|--3--3-3--3--5---5--|
|-7---7---7-5-5----5-|--5--5-5--5--7---7--|
|-7---7---7-5-5----5-|--5--5-5--5--7---7--|
|--------------------|--------------------|
|--------------------|--------------------|
|--------------------|--------------------|


  D
   Q   +Q    +H              +W
   |    |     |               |
   /    /     /               /

   H         +Q     E    E    Q    E    E  E  E    Q
|--------------------------|---------------------------||
|--------------------------|---------------------------||
|--------------------------|---------------------------||
|-------------------0----0-|--0----0----0--0--0----0---||
|--------------------------|---------------------------||
|-10--------(10)---10---10-|-10---10---10-10-10---10---||
|
|  >                          >
|  |--3---|   |---3---|       |--3---|     |----3----|
|  q q    q   q  q    q       q q    q     q    q    q
|--5-5----5---5--5----5----|--5-5----5-----5----5----5-||
|--7-7----7---7--7----7----|--7-7----7-----7----7----7-||
|--7-7----7---7--7----7----|--7-7----7-----7----7----7-||
|--------------------------|---------------------------||
|--------------------------|---------------------------||
|--------------------------|---------------------------||


 Pre-Verse
  Gtr I
   E  E  E  E  E  E  E  E    E  E  E  E  E  E  E  E
|-20-------19-------19----|----19-------17----------|
|----17-------17-------17-|-------17-------17-------|
|-------19-------19-------|-19-------19-------19s17-|
|-------------------------|-------------------------|
|-------------------------|-------------------------|
|-------------------------|-------------------------|


   E  E  E  E  E  E  E  E    E  E  E  E  E  E  E  E
|-17-------15-------15----|----15-------15----------|
|----15-------15-------15-|-------15-------15-------|
|-------17-------17-------|-17-------17-------17s19-|
|-------------------------|-------------------------|
|-------------------------|-------------------------|
|-------------------------|-------------------------|


  $
  E                            EmX      EsuEmX
  Gtr II
   Q     E  E  Q     E  E    E  E  E  E  E  E  E  E
   |     |  |  |     |  |    |  |  |  |  |  |  |  |
   /     /  /  /     /  /    /  /  /  /  /  /  /  /

   E  E  E  E  E  E  E  E    E  E  E  E  E  E  E  E
|-20-------19-------19----|----19-------17----------|
|----17-------17-------17-|-------17-------17-------|
|-------19-------19-------|-19-------19-------19s17-|
|-------------------------|-------------------------|
|-------------------------|-------------------------|
|-------------------------|-------------------------|


  Emadd4/A                  Cadd6
   Q     E  E  E  E  E  E    E  E  E  E  E  E  E  E
   |     |  |  |  |  |  |    |  |  |  |  |  |  |  |
   /     /  /  /  /  /  /    /  /  /  /  /  /  /  /

   E  E  E  E  E  E  E  E    E  E  E  E  E  E  E  E
|-17-------15-------15----|----15-------15----------||
|----15-------15-------15-|-------15-------15-------||
|-------17-------17-------|-17-------17-------17s19-||
|-------------------------|-------------------------||
|-------------------------|-------------------------||
|-------------------------|-------------------------||


   Verse
    Gtr I
     E  E  E  E  E  E  E  E    E  E  E  E  E  E  E  E
||--20-------19-------19----|----19-------17----------|
||o----17-------17-------17-|-------17-------17-------|
||--------19-------19-------|-19-------19-------19s17-|
||--------------------------|-------------------------|
||o-------------------------|-------------------------|
||--------------------------|-------------------------|
|
|   Gtr II
|    Q     E  E  Q     E  E    E  E  E  E  E  E  E  E
||--------------------------|-------------------------|
||o-------------------------|-------------------------|
||---9-----9--9--9-----9--9-|--9S12-12-12-14-12-12-12-|
||--------------------------|-------------------------|
||o--7-----7--7--7-----7--7-|--7S10-10-10-12-10-10-10-|
||---0-----0--0--0-----0--0-|--0--0--0--0--0--0--0--0-|


   E  E  E  E  E  E  E  E    E  E  E  E  E  E  E  E   4x
|-17-------15-------15----|----15-------15------------||
|----15-------15-------15-|-------15-------15--------o||
|-------17-------17-------|-17-------17-------17s19---||
|-------------------------|---------------------------||
|-------------------------|--------------------------o||
|-------------------------|---------------------------||
|
|  Q     E  E  E  E  E  E    E  E  E  E  E  E  E  E   4x
|-------------------------|---------------------------||
|--8-----8--8--8--8--8--8-|--------------------------o||
|--9-----9--9--9--9--9--9-|--9--9--9--9--9--9--9--9---||
|--7-----7--7--7--7--7--7-|--7--7--7--7--7--7--7--7---||
|--0-----0--0--0--0--0--0-|--------------------------o||
|-------------------------|--8--8--8--8--8--8--8--8---||


   Chorus
    Gtr I
      E  E  E  E  E  E E   E     E  E  E  E  E  E  E  E
||----------------------------|-------------------------|
||o---------------------------|-------------------------|
||----------------------------|-------------------------|
||----9--9--9--9--9--9-9---9--|--9--9--9--9--9--9--9--9-|
||o---7--7--7--7--7--7-7---7--|--7--7--7--7--7--7--7--7-|
||----0--0--0--0--0--0-0---0--|--0--0--0--0--0--0--0--0-|
|
|   Gtr II
|     E  E  E  E  E  Q    +E     E  E  E  E  E  E  E  E
||----------------------------|-------------------------|
||o---------------------------|-------------------------|
||--/14-14-14-14-14-12---(12)S|=14-14-14-14-14-12-12-12-|
||----------------------------|-------------------------|
||o-/12-12-12-12-12-10---(10)S|=12-12-12-12-12-10-10-10-|
||----0--0--0--0--0--0----(0)-|--0--0--0--0--0--0--0--0-|


                                   To Coda
   E  E  E  E  E  E  E  E   E E E E E E E E   4x
|-------------------------|-------------------||
|-------------------------|------------------o||
|-------------------------|-------------------||
|--4--4--4--4--4--4--4--4-|-7-7-7-7-7-7-7-7---||
|--7--7--7--7--7--7--7--7-|------------------o||
|--5--5--5--5--5--5--5--5-|-8-8-8-8-8-8-8-8---||
|
|  E  E  E  E  E  E  E  E   E E E E E E E E   4x
|-------------------------|-------------------||
|-------------------------|------------------o||
|-11-11-11-11-11-12s11-11-|-9-9-9-9-9-9-9-9---||
|--0--0--0--0--0--0--0--0-|-------------------||
|--9--9--9--9--9-10s=9--9-|-7-7-7-7-7-7-7-7--o||
|-------------------------|-------------------||


   Pre-Verse
           Em                                     D
    Gtr III
    H      Q   +Q     +W                H         Q   +Q     +W
           |    |      |                          |    |      |
           /    /      /                          /    /      /

    Gtr II
    PM--|                               PM----|
    E E Q  H          +W                E E   Q   H          +W
||------------------|-----------------|--------------------|-----------------|
||o-----------------|-----------------|--------------------|-----------------|
||------------------|-----------------|--------------------|-----------------|
||------------------|-----------------|--------------------|-----------------|
||o--------7--------|-(7)-------------|-----------5--------|-(5)-------------|
||--0-0-0-----------|-----------------|-0-0---0------------|-----------------|
|
|   Gtr I
|                      >                                      >
|          |--3---|    |-3--| |-3-|     |---3---| |--3---|    |-3--| |-3-|
|   H      q q    q    q  q q q q q     q   q   q q q    q    q  q q q q q
||---------7-7----7-|--7--7-7-7-7-7---|-7---7---7-5-5----5-|--5--5-5-5-5-5---|
||o--------8-8----8-|--8--8-8-8-8-8---|-8---8---8-7-7----7-|--7--7-7-7-7-7---|
||---------9-9----9-|--9--9-9-9-9-9---|-9---9---9-7-7----7-|--7--7-7-7-7-7---|
||------------------|-----------------|--------------------|-----------------|
||o-----------------|-----------------|--------------------|-----------------|
||------------------|-----------------|--------------------|-----------------|


  1.
            Am
  H         Q   +Q     +W
            |    |      |
            /    /      /

  PM----|
  E E   Q   H          +H      +Q    Q
|--------------------|--------------------|
|--------------------|--------------------|
|--------------------|--------------------|
|--------------------|--------------------|
|--------------------|--------------------|
|-0-0---0---5--------|-(5)-----(5)---5S===|
|
|                       >
| |---3---| |--3---|    |-3--|  |--3---|
| q   q   q q q    q    q  q q  q  q   q
|-5---5---5-3-3----3-|--3--3-3--3--5---5--|
|-7---7---7-5-5----5-|--5--5-5--5--7---7--|
|-7---7---7-5-5----5-|--5--5-5--5--7---7--|
|--------------------|--------------------|
|--------------------|--------------------|
|--------------------|--------------------|


  D
   Q   +Q   +H         Q   +Q    +H
   |    |    |         |    |     |
   /    /    /         /    /     /

   W                   H         +H
|-------------------|-----------------------||
|-------------------|----------------------o||
|-------------------|-----------------------||
|-------------------|-----------------------||
|-------------------|----------------------o||
|-10----------------|-10--------(10)\-------||
|
|  >                   >
|  |--3---|  |-3-|     |--3---|   |--3--|
|  q q    q  q q q     q q    q   q   q q
|--5-5----5--5-5-5--|--5-5----5---5---5-5---||
|--7-7----7--7-7-7--|--7-7----7---7---7-7--o||
|--7-7----7--7-7-7--|--7-7----7---7---7-7---||
|-------------------|-----------------------||
|-------------------|----------------------o||
|-------------------|-----------------------||


  3.
            Em
  H         Q   +Q     +W
            |    |      |
            /    /      /

  PM----|
  E E   Q   H          +H      +Q    Q
|--------------------|--------------------|
|--------------------|--------------------|
|--------------------|--------------------|
|--------------------|--------------------|
|--------------------|--------------------|
|-0-0---0---5--------|-(5)-----(5)---5S===|
|
|                       >
| |---3---| |--3---|    |-3--|  |--3---|
| q   q   q q q    q    q  q q  q  q   q
|-5---5---5-3-3----3-|--3--3-3--3--5---5--|
|-7---7---7-5-5----5-|--5--5-5--5--7---7--|
|-7---7---7-5-5----5-|--5--5-5--5--7---7--|
|--------------------|--------------------|
|--------------------|--------------------|
|--------------------|--------------------|


                                            D.S. al Coda
  D
   Q   +Q    +H              +W
   |    |     |               |
   /    /     /               /

   H         +Q     E    E    E  E    E    E  E  E    Q
|--------------------------|-------------------------------||
|--------------------------|-------------------------------||
|--------------------------|-------------------------------||
|-------------------0----0-|--0--0----0----0--0--0----0----||
|--------------------------|-------------------------------||
|-10--------(10)---10---10-|-10-10---10---10-10-10---10----||
|
|  >                          >
|  |--3---|   |---3---|       |----3----|     |----3-----|
|  q q    q   q  q    q       q    q    q     q    q     q
|--5-5----5---5--5----5----|--5----5----5-----5----5-----5-||
|--7-7----7---7--7----7----|--7----7----7-----7----7-----7-||
|--7-7----7---7--7----7----|--7----7----7-----7----7-----7-||
|--------------------------|-------------------------------||
|--------------------------|-------------------------------||
|--------------------------|-------------------------------||


 Interlude
  &
  Gtr I
   W           W           W             +W
|-14--------|-----------|-------------|---------------||
|-----------|-15--------|-------------|---------------||
|-----------|-----------|-------------|---------------||
|-----------|-----------|-14----------|-(14)----------||
|-----------|-----------|-------------|---------------||
|-----------|-----------|-------------|---------------||
|
| Gtr IV
|  W           W           H     H        H      H
|-----------|-----------|-------------|---------------||
|-----------|-----------|-------12----|---------------||
|-----------|-----------|-------------|---9-----------||
|-----------|-----------|-------------|---------------||
|-----------|-----------|-------------|---------------||
|-----------|-----------|-------------|---------12----||


   W           W           W           +W
|-14--------|-----------|-----------|---------||
|-----------|-15--------|-----------|---------||
|-----------|-----------|-12--------|-(12)----||
|-----------|-----------|-----------|---------||
|-----------|-----------|-----------|---------||
|-----------|-----------|-----------|---------||
|
|  W           W           W           +W
|-----------|-----------|-----------|---------||
|-----------|-----------|-----------|---------||
|-12--------|-----------|-----------|---------||
|-----------|-----------|--9--------|--(9)----||
|-----------|-10--------|-----------|---------||
|-----------|-----------|-----------|---------||


   W           W             W           +W              W           W
|-14--------|-------------|-----------|--------------||-14--------|-------|
|-----------|-15----------|-----------|--------------||-----------|-15----|
|-----------|-------------|-----------|--------------||-----------|-------|
|-----------|-------------|-14--------|-(14)---------||-----------|-------|
|-----------|-------------|-----------|--------------||-----------|-------|
|-----------|-------------|-----------|--------------||-----------|-------|
|
|  W           H     H       W            H     H        W           W
|-----------|-------------|-----------|--------------||-----------|-------|
|-12--------|-------------|-----------|--------------||-----------|-------|
|-----------|--9----------|-12--------|--------------||-----------|-------|
|-----------|-------------|-----------|---------9----||-----------|-------|
|-----------|-------------|-----------|--10----------||-----------|-------|
|-----------|-------12----|-----------|--------------||-----------|-------|


   W             +W              W            W            W           +W
|-------------|--------------||-14--------|-------------|-----------|---------||
|-------------|--------------||-----------|--15---------|-----------|---------||
|-12----------|-(12)---------||-----------|-------------|-14--------|-(14)----||
|-------------|--------------||-----------|-------------|-----------|---------||
|-------------|--------------||-----------|-------------|-----------|---------||
|-------------|--------------||-----------|-------------|-----------|---------||
|
|  H     H        H     H        W           +W            W           +W
|-------------|--------------||-----------|-------------|-----------|---------||
|-12----------|--------------||-----------|-------------|-----------|---------||
|-------12----|---9----------||-----------|-------------|-----------|---------||
|-------------|---------9----||-----------|-------------|-----------|---------||
|-------------|--------------||-10--------|-(10)--------|-----------|---------||
|-------------|--------------||-----------|-------------|-12--------|-(12)----||


   Chorus
    Gtr I
     E  E  E  E  E  E  E  E    E  E  E  E  E  E  E  E
||--20-------19-------19----|----19-------17----------|
||o----17-------17-------17-|-------17-------17-------|
||--------19-------19-------|-19-------19-------19s17-|
||--------------------------|-------------------------|
||o-------------------------|-------------------------|
||--------------------------|-------------------------|
|
|   Gtr II
|    Q     E  E  Q     E  E    E  E  E  E  E  E  E  E
||--------------------------|-------------------------|
||o-------------------------|-------------------------|
||---9-----9--9--9-----9--9-|--9S12-12-12-14-12-12-12-|
||--------------------------|-------------------------|
||o--7-----7--7--7-----7--7-|--7S10-10-10-12-10-10-10-|
||---0-----0--0--0-----0--0-|--0--0--0--0--0--0--0--0-|


   E  E  E  E  E  E  E  E    E  E  E  E  E  E  E  E   4x
|-17-------15-------15----|----15-------15------------||
|----15-------15-------15-|-------15-------15--------o||
|-------17-------17-------|-17-------17-------17s19---||
|-------------------------|---------------------------||
|-------------------------|--------------------------o||
|-------------------------|---------------------------||
|
|  Q     E  E  E  E  E  E    E  E  E  E  E  E  E  E   4x
|-------------------------|---------------------------||
|--8-----8--8--8--8--8--8-|--------------------------o||
|--9-----9--9--9--9--9--9-|--9--9--9--9--9--9--9--9---||
|--7-----7--7--7--7--7--7-|--7--7--7--7--7--7--7--7---||
|--0-----0--0--0--0--0--0-|--------------------------o||
|-------------------------|--8--8--8--8--8--8--8--8---||


 Outro
  E
  Gtr II
   W                        +W
   |                         |
   /                         /

  Gtr I
   E  E  E  E  E  E  E  E    E  E  E  E  E  E  E  E
|-20-------19-------19----|----19-------17----------|
|----17-------17-------17-|-------17-------17-------|
|-------19-------19-------|-19-------19-------19s17-|
|-------------------------|-------------------------|
|-------------------------|-------------------------|
|-------------------------|-------------------------|


  +H           H             W
   |
   /

   E  E  E  E  E  E  E  E    E  E  E  E  E  E  E  E
|-17-------15-------15----|----15-------15----------|
|----15-------15-------15-|-------15-------15-------|
|-------17-------17-------|-17-------17-------17s19-|
|-------------------------|-------------------------|
|-------------------------|-------------------------|
|-------------------------|-------------------------|


   E  E  E  E  E  E  E  E    E  E  E  E  E  E  E  E
|-20-------19-------19----|----19-------17----------|
|----17-------17-------17-|-------17-------17-------|
|-------19-------19-------|-19-------19-------19s17-|
|-------------------------|-------------------------|
|-------------------------|-------------------------|
|-------------------------|-------------------------|


   E  E  E  E  E  E  E  E    E  E  E  E  E  E  E  E
|-17-------15-------15----|----15-------15-------15-|
|----15-------15-------15-|-------15-------15-------|
|-------17-------17-------|-17-------17-------17----|
|-------------------------|-------------------------|
|-------------------------|-------------------------|
|-------------------------|-------------------------|


          >
   E  E   E    E    E    E    E    E     +Q   Q  H      W          W
|-------(15)-----------(15)-----------|---------------|----------|------*|
|-15---------(15)-----------(15)------|---------------|----------|------*|
|----17-----------(17)-----------(17)-|-(17)----------|----------|------*|
|-------------------------------------|---------------|----------|------*|
|-------------------------------------|---------------|----------|------*|
|-------------------------------------|---------------|----------|------*|



Duration Legend
---------------
W - whole; H - half; Q - quarter; E - 8th; S - 16th; T - 32nd; X - 64th; a - acciaccatura
+ - note tied to previous; . - note dotted; .. - note double dotted
Uncapitalized letters represent notes that are staccato (1/2 duration)
Irregular groupings are notated above the duration line
Duration letters will always appear directly above the note/fret number it represents the
duration for.  Duration letters with no fret number below them represent rests.  Multi-
bar rests are notated in the form Wxn, where n is the number of bars to rest for.  Low
melody durations appear below the staff

Tablature Legend
----------------
 h   - hammer-on
 p   - pull-off
 b   - bend
 pb  - pre-bend
 r   - bend release (if no number after the r, then release immediately)
 /\  - slide into or out of (from/to "nowhere")
 s   - legato slide
 S   - shift slide
<n> - natural harmonic
[n]  - artificial harmonic
n(n) - tapped harmonic
 ~   - vibrato
 tr  - trill
 T   - tap
 TP  - trem. picking
 PM  - palm muting
\n/  - tremolo bar dip; n = amount to dip
 \n  - tremolo bar down
 n/  - tremolo bar up
/n\  - tremolo bar inverted dip
 =   - hold bend; also acts as connecting device for hammers/pulls
 <> - volume swell (louder/softer)
 x   - on rhythm slash represents muted slash
 o   - on rhythm slash represents single note slash

Misc Legend
-----------
 |  - bar
||  - double bar
||o - repeat start
o|| - repeat end
*|  - double bar (ending)
 :  - bar (freetime)
 $  - Segno
 &  - Coda
Tempo markers - <E/E./Q/Q./H/H.> = BPM(8/16=s8/s16), where s8 = swing 8ths, s16 = swing 16ths


*** GuitarCats.com ***