Tabs by Artist
0-9 A B C D E F G H I J K L M N O P Q R S T U V W X Y Z

ROLODEX PROPAGANDA

As recorded by At The Drive-In

(From the 2000 Album RELATIONSHIP OF COMMAND)

Tablature (Tab) for Guitar
Transcribed by Eoin Watson (watsy@nme.com)
Words and Music by At The Drive-In


A

x 0 7 x 10 x
Dm/F

x 8 x 7 x x
Am/C

8 x 7 x x x
G#m/B

7 x 6 x x x
Dsus2/E

0 7 x 7 x x
Asus4

5 x 0 7 x x
D

x 5 x 7 x x
A5/E

x 7 7 x 10 x



Gtr I (E A D G B E) - 'Omar'

Gtr II (E A D G B E) - 'Jim'

Gtr III (E A D G B E) - 'Keyboard'

Gtr IV (E A D G B E) - 'Muted'


 Intro
  Q=175
          A
 4/4
  Gtr II
  H    Q  E E    E E       E   E        E   E  E E   E E E E E E  E E
          | |      |       |   |        |   |  | |   | | | | | |  | |
          / /      /       /   /        /   /  / /   / / / / / /  / /

  Gtr I
  H    Q  E E    E E      +E  +E       +E  +E  E E   E E E E E E  E E
|-------------||---0------(0)-(0)------(0)-(0)-----|------------------|
|-------------||---5b5.5==(5)r(5)b5.5==(5)r(5)-5---|-7-----8-----10---|
|-------------||---------------------------------4-|-----7-----8------|
|---------2-2-||-----------------------------------|---6-----7------7-|
|---------0-0-||-----------------------------------|------------------|
|-------------||-----------------------------------|------------------|


  E  E         E    E          E    E  E E   E E E E  E E E E
     |         |    |          |    |  | |   | | | |  | | | |
     /         /    /          /    /  / /   / / / /  / / / /

  E  E        +E   +E         +E   +E  E E   E E E E  E E E E
|----0--------(0)--(0)--------(0)--(0)-----|-----0--------0-----||
|---10b10.5==(10)r(10)b10.5==(10)r(10)---0-|---3---3----6---5---||
|--------------------------------------0---|-4-------/8---------||
|------------------------------------------|--------------------||
|------------------------------------------|--------------------||
|------------------------------------------|--------------------||


   Verse
    A
    E E       E   E        E   E  E E   E E E E E E  E E
      |       |   |        |   |  | |   | | | | | |  | |
      /       /   /        /   /  / /   / / / / / /  / /

    E E      +E  +E       +E  +E  E E   E E E E E E  E E
||----0------(0)-(0)------(0)-(0)-----|------------------|
||o---5b5.5==(5)r(5)b5.5==(5)r(5)-5---|-7-----8-----10---|
||----------------------------------4-|-----7-----8------|
||------------------------------------|---6-----7------7-|
||o-----------------------------------|------------------|
||------------------------------------|------------------|


  E  E         E    E          E    E  E E   E E E E  E E E E
     |         |    |          |    |  | |   | | | |  | | | |
     /         /    /          /    /  / /   / / / /  / / / /

  E  E        +E   +E         +E   +E  E E   E E E E  E E E E   3x
|----0--------(0)--(0)--------(0)--(0)-----|-----0--------0-----||
|---10b10.5==(10)r(10)b10.5==(10)r(10)---0-|---3---3----6---5--o||
|--------------------------------------0---|-4-------/8---------||
|------------------------------------------|--------------------||
|------------------------------------------|-------------------o||
|------------------------------------------|--------------------||


   Pre-Chorus
    $
    Dm/F
    Gtr II
    E  E  E  E E  E  E  E   E  E  E  E     E  E  E  E
    |  |     | |     |  |      |  |        |  |  |  |
    /  /     / /     /  /      /  /        /  /  /  /

    Gtr I
    E  E  E  E E  E  E  E   E  E  E  S  S  E  E  E  E
||------------------------|---------------------------|
||o-----------------------|---------------------------|
||----10-10-10---10-10-10-|---10-10-14-14-14-12-12----|
||-----x--x--x----x--x--x-|----x--x--x--x--x--x--x----|
||o----8--8--8----8--8--8-|----8--8-12-12-12-10-10----|
||------------------------|---------------------------|
|
|   Gtr III
|   W                       E  E  E  E     E  E  E  E
||------------------------|---------------------------|
||o-----------------------|---------------13----------|
||------------------------|---14-12-14-------14-12-14-|
||------------------------|---------------------------|
||o-----------------------|---------------------------|
||------------------------|---------------------------|


  Am/C              G#m/B
    E   E  E  E E E E E     E   E  E  E  E  E  E  E
    |   |     | |   | |         |  |     |  |  |  |
    /   /     / /   / /         /  /     /  /  /  /

    E   E  E  E E E E E     E   E  E  E  E  E  E  E
|-----------------------|---------------------------|
|-----------------------|---------------------------|
|---9---9--9--9---9-9-9-|---------------------------|
|--10--10-10-10---9-9-9-|-------9--9--9-10-10-10-10-|
|-----------------------|---------------------------|
|---8---8--8--8---7-7-7-|-------7--7--7--7--7--7--7-|
|
|  +W                      +E   E  E  E  E  E  E  E
|-----------------------|---------------------------|
|-----------------------|---------------13----------|
|-(14)------------------|-(14)-14-12-14----14-12-14-|
|-----------------------|---------------------------|
|-----------------------|---------------------------|
|-----------------------|---------------------------|


  Dm/F
    E   E  E  E E  E  E  E     E   E  E  E     E  E  E  E
    |   |     | |     |  |         |  |        |  |  |  |
    /   /     / /     /  /         /  /        /  /  /  /

    E   E  E  E E  E  E  E     E   E  E  S  S  E  E  E  E
|--------------------------|------------------------------|
|--------------------------|------------------------------|
|------10-10-10---10-10-10-|------10-10-14-14-14-12-12----|
|-------x--x--x----x--x--x-|-------x--x--x--x--x--x--x----|
|-------8--8--8----8--8--8-|-------8--8-12-12-12-10-10----|
|--------------------------|------------------------------|
|
|  +W                         +E   E  E  E     E  E  E  E
|--------------------------|------------------------------|
|--------------------------|------------------13----------|
|-(14)---------------------|-(14)-14-12-14-------14-12-14-|
|--------------------------|------------------------------|
|--------------------------|------------------------------|
|--------------------------|------------------------------|


                                            To Coda
  Am/C                 G#m/B
    E   E  E  E   E  E  E  E     E  E E E  E  E  E  E
    |   |     |   |     |  |        | |    |  |  |  |
    /   /     /   /     /  /        / /    /  /  /  /

    E   E  E  E   E  E  E  E     E  E E E  E  E  E  E
|----------------------------|--------------------------||
|----------------------------|-------------------------o||
|---9---9--9--9------9--9--9-|--------------------------||
|--10--10-10-10------9--9--9-|------9-9-9-10-10-10-10---||
|----------------------------|-------------------------o||
|---8---8--8--8------7--7--7-|------7-7-7--7--7--7--7---||
|
|  +H            +Q     E  E    +W
|----------------------------|--------------------------||
|----------------------------|-------------------------o||
|-(14)----------(14)---12----|--------------------------||
|-------------------------14-|-(14)---------------------||
|----------------------------|-------------------------o||
|----------------------------|--------------------------||


 1st Guitar Break
  Gtr II                                                      Gtr IV
  E E E E E E E E   E E E E E E E E   E E E E E E E E   E E E S S E E E E
|-----------------|-----------------|-----------------|--------------------||
|-----------------|-----------------|-----------------|--------------------||
|-7-7---7-7---7-7-|---7-7---7-7-7-0-|-----------------|--------------------||
|-----------------|-----------------|-7-7---7-7---6-6-|---6-6-x-x-x-x-x-x--||
|-8-8---8-8---8-8-|---8-8---8-8-8-0-|-----------------|-------x-x-x-x-x-x--||
|-----------------|-----------------|-8-8---8-8---7-7-|---7-7-x-x-x-x-x-x--||


   1st Chorus
    Dm/F                   Dsus2/E
    Gtr II
     E  E E  E  E E  E E     E   E E  E  E E  E E
     |  | |  |  | |  | |     |   | |  |  | |  | |
     /  / /  /  / /  / /     /   / /  /  / /  / /

    Gtr I
     E  E E  E  E E  E E     E   E E  E  E E  E E
||-----------------------|------------------------|
||o-13-12p0-13-12p0-13p0-|--12--10p0-12-10p0-12p0-|
||-----------------------|------------------------|
||-----------------------|------------------------|
||o----------------------|------------------------|
||-----------------------|------------------------|
|
|   Gtr III
|    W                      +W
||--17-------------------|-(17)-------------------|
||o----------------------|------------------------|
||--14-------------------|--12--------------------|
||-----------------------|------------------------|
||o----------------------|------------------------|
||-----------------------|------------------------|
     W                       W


                          1.,2.,3.
  Asus4                    D
    E   E E  E  E E  E E     E   E  E  E  E  E  E  E
    |   | |  |  | |  | |     |   |  |  |  |  |  |  |
    /   / /  /  / /  / /     /   /  /  /  /  /  /  /

    E   E E  E  E E  E E     E   E  E  E  E  E  E  E   4x
|------------------------|-----------------------------||
|--15--13p0-15-13p0-15p0-|--13--12p=0-12-13-12----12--o||
|------------------------|---------------------14------||
|------------------------|-----------------------------||
|------------------------|----------------------------o||
|------------------------|-----------------------------||
|
|  +W                       +W                         4x
|-(17)-------------------|-(17)------------------------||
|------------------------|----------------------------o||
|------------------------|--12-------------------------||
|--14--------------------|---------14----12-14-12-14---||
|------------------------|----------------------------o||
|------------------------|-----------------------------||
    W                        Q      Q     E  E  E  E


  4.
  D
    E   E  E  E  E  E  E  E    W                          H       Q    E E
    |   |  |  |  |  |  |  |                                            | |
    /   /  /  /  /  /  /  /                                            / /

    E   E  E  E  E  E  E  E    E E E E      +E  +E  E E   E E E E E E  E E
|---------------------------||---0-0-0------(0)-(0)-----|------------------||
|--13--12p=0-12-13-12----12-||---5-5-5b5.5==(5)r(5)-5---|-7-----8-----10---||
|---------------------14----||------------------------4-|-----7-----8------||
|---------------------------||--------------------------|---6-----7------7-||
|---------------------------||--------------------------|------------------||
|---------------------------||--------------------------|------------------||
|
|  +W                          W                          W
|-(17)----------------------||--------------------------|------------------||
|---------------------------||--------------------------|------------------||
|--12-----------------------||--------------------------|------------------||
|---------14----12-14-12-14-||--------------------------|------------------||
|---------------------------||--------------------------|------------------||
|---------------------------||--------------------------|------------------||
    Q      Q     E  E  E  E


   2nd Verse
    A
    E  E         E    E          E    E  E E   E E E E  E E E E
       |         |    |          |    |  | |   | | | |  | | | |
       /         /    /          /    /  / /   / / / /  / / / /

    E  E        +E   +E         +E   +E  E E   E E E E  E E E E
||-----0--------(0)--(0)--------(0)--(0)-----|-----0--------0---|
||o---10b10.5==(10)r(10)b10.5==(10)r(10)---0-|---3---3----6---5-|
||---------------------------------------0---|-4-------/8-------|
||-------------------------------------------|------------------|
||o------------------------------------------|------------------|
||-------------------------------------------|------------------|


  E E       E   E        E   E  E E   E E E E E E  E E
    |       |   |        |   |  | |   | | | | | |  | |
    /       /   /        /   /  / /   / / / / / /  / /

  E E      +E  +E       +E  +E  E E   E E E E E E  E E
|---0------(0)-(0)------(0)-(0)-----|--------------------||
|---5b5.5==(5)r(5)b5.5==(5)r(5)-5---|-7-----8-----10----o||
|---------------------------------4-|-----7-----8--------||
|-----------------------------------|---6-----7------7---||
|-----------------------------------|-------------------o||
|-----------------------------------|--------------------||


    A5/E
    E  E         E    E          E    E  E E   E E E E  E E E E
       |         |    |          |    |  | |   | | | |  | | | |
       /         /    /          /    /  / /   / / / /  / / / /

    E  E        +E   +E         +E   +E  E E   E E E E  E E E E
||-----0--------(0)--(0)--------(0)--(0)-----|-----0--------0---|
||o---10b10.5==(10)r(10)b10.5==(10)r(10)---0-|---3---3----6---5-|
||---------------------------------------0---|-4-------/8-------|
||-------------------------------------------|------------------|
||o------------------------------------------|------------------|
||-------------------------------------------|------------------|


                                         D.S. al Coda
  E E       E   E        E   E  E E   E E E E E E  E E
    |       |   |        |   |  | |   | | | | | |  | |
    /       /   /        /   /  / /   / / / / / /  / /

  E E      +E  +E       +E  +E  E E   E E E E E E  E E
|---0------(0)-(0)------(0)-(0)-----|--------------------||
|---5b5.5==(5)r(5)b5.5==(5)r(5)-5---|-7-----8-----10----o||
|---------------------------------4-|-----7-----8--------||
|-----------------------------------|---6-----7------7---||
|-----------------------------------|-------------------o||
|-----------------------------------|--------------------||


   2nd Chorus
    &
    Dm/F                   Dsus2/E
    Gtr II
     E  E E  E  E E  E E     E   E E  E  E E  E E
     |  | |  |  | |  | |     |   | |  |  | |  | |
     /  / /  /  / /  / /     /   / /  /  / /  / /

    Gtr I
     E  E E  E  E E  E E     E   E E  E  E E  E E
||-----------------------|------------------------|
||o-13-12p0-13-12p0-13p0-|--12--10p0-12-10p0-12p0-|
||-----------------------|------------------------|
||-----------------------|------------------------|
||o----------------------|------------------------|
||-----------------------|------------------------|
|
|   Gtr III
|    W                      +W
||--17-------------------|-(17)-------------------|
||o----------------------|------------------------|
||--14-------------------|--12--------------------|
||-----------------------|------------------------|
||o----------------------|------------------------|
||-----------------------|------------------------|
     W                       W


                          1.,2.,3.
  Asus4                    D
    E   E E  E  E E  E E     E   E  E  E  E  E  E  E
    |   | |  |  | |  | |     |   |  |  |  |  |  |  |
    /   / /  /  / /  / /     /   /  /  /  /  /  /  /

    E   E E  E  E E  E E     E   E  E  E  E  E  E  E   4x
|------------------------|-----------------------------||
|--15--13p0-15-13p0-15p0-|--13--12p=0-12-13-12----12--o||
|------------------------|---------------------14------||
|------------------------|-----------------------------||
|------------------------|----------------------------o||
|------------------------|-----------------------------||
|
|  +W                       +W                         4x
|-(17)-------------------|-(17)------------------------||
|------------------------|----------------------------o||
|------------------------|--12-------------------------||
|--14--------------------|---------14----12-14-12-14---||
|------------------------|----------------------------o||
|------------------------|-----------------------------||
    W                        Q      Q     E  E  E  E


                              2nd Guitar Break
  4.
  D
    E   E  E  E  E  E  E  E    W
    |   |  |  |  |  |  |  |
    /   /  /  /  /  /  /  /

                               Gtr II
    E   E  E  E  E  E  E  E    Q  E E Q  E E
|---------------------------||---------------|
|--13--12p=0-12-13-12----12-||---------------|
|---------------------14----||---------------|
|---------------------------||---------------|
|---------------------------||---------------|
|---------------------------||-5--5-0-3--3s8-|
|
|  +W                          W
|-(17)----------------------||---------------|
|---------------------------||---------------|
|--12-----------------------||---------------|
|---------14----12-14-12-14-||---------------|
|---------------------------||---------------|
|---------------------------||---------------|
    Q      Q     E  E  E  E


  W                 W                W
  E E E E E E E E   E E E E Q  E E   E E E E E E E E
|-----------------|----------------|-----------------|
|-----------------|----------------|-----------------|
|-----------------|----------------|-----------------|
|-----------------|----------------|-----------------|
|-----------------|----------------|-----------------|
|-8-8-8-0-3-3-3-3-|-5-5-5-0-3--3s8-|-8-8-8-0-3-3-3s5-|
|
| W                 W                W
|-----------------|----------------|-----------------|
|-----------------|----------------|-----------------|
|-----------------|----------------|-----------------|
|-----------------|----------------|-----------------|
|-----------------|----------------|-----------------|
|-----------------|----------------|-----------------|


                                                                 A
                                                                 Gtr I
  W               W                 W                H       Q   E E
                                                                 | |
                                                                 / /

  Gtr II
  Q  E E Q  E E   E E E E E E E E   E E E E Q  E E   E E E E E E E E
|---------------|-----------------|----------------|-----------------||
|---------------|-----------------|----------------|-----------------||
|---------------|-----------------|----------------|-----------------||
|---------------|-----------------|----------------|-----------------||
|---------------|-----------------|----------------|-----------------||
|-5--5-0-3--3s8-|-8-8-8-0-3-3-3-3-|-5-5-5-0-3--3s8-|-8-8-8-0-3-3-3-3-||


 Outro
  A
  Gtr II
  E E       E   E        E   E  E E   E E E E E E  E E
  | |       |   |        |   |  | |   | | | | | |  | |
  / /       /   /        /   /  / /   / / / / / /  / /

  Gtr I
  E E      +E  +E       +E  +E  E E   E E E E E E  E E
|---0------(0)-(0)------(0)-(0)-----|------------------|
|---5b5.5==(5)r(5)b5.5==(5)r(5)-5---|-7-----8-----10---|
|---------------------------------4-|-----7-----8------|
|-----------------------------------|---6-----7------7-|
|-----------------------------------|------------------|
|-----------------------------------|------------------|


  E  E         E    E          E    E  E E   E E E E  E E E E
  |  |         |    |          |    |  | |   | | | |  | | | |
  /  /         /    /          /    /  / /   / / / /  / / / /

  E  E        +E   +E         +E   +E  E E   E E E E  E E E E
|----0--------(0)--(0)--------(0)--(0)-----|-----0--------0---|
|---10b10.5==(10)r(10)b10.5==(10)r(10)---0-|---3---3----6---5-|
|--------------------------------------0---|-4-------/8-------|
|------------------------------------------|------------------|
|------------------------------------------|------------------|
|------------------------------------------|------------------|


  A5/E
  Gtr II
  E E       E   E        E   E  E E   E E E E E E  E E
  | |       |   |        |   |  | |   | | | | | |  | |
  / /       /   /        /   /  / /   / / / / / /  / /

  Gtr I
  E E      +E  +E       +E  +E  E E   E E E E E E  E E
|---0------(0)-(0)------(0)-(0)-----|------------------|
|---5b5.5==(5)r(5)b5.5==(5)r(5)-5---|-7-----8-----10---|
|---------------------------------4-|-----7-----8------|
|-----------------------------------|---6-----7------7-|
|-----------------------------------|------------------|
|-----------------------------------|------------------|


  E  E         E    E          E    E  E E   E E E E  E E E E
  |  |         |    |          |    |  | |   | | | |  | | | |
  /  /         /    /          /    /  / /   / / / /  / / / /

  E  E        +E   +E         +E   +E  E E   E E E E  E E E E
|----0--------(0)--(0)--------(0)--(0)-----|-----0--------0-0-*|
|---10b10.5==(10)r(10)b10.5==(10)r(10)---0-|---3---3----6-5-5-*|
|--------------------------------------0---|-4-------/8-------*|
|------------------------------------------|------------------*|
|------------------------------------------|------------------*|
|------------------------------------------|------------------*|



Duration Legend
---------------
W - whole; H - half; Q - quarter; E - 8th; S - 16th; T - 32nd; X - 64th; a - acciaccatura
+ - note tied to previous; . - note dotted; .. - note double dotted
Uncapitalized letters represent notes that are staccato (1/2 duration)
Irregular groupings are notated above the duration line
Duration letters will always appear directly above the note/fret number it represents the
duration for.  Duration letters with no fret number below them represent rests.  Multi-
bar rests are notated in the form Wxn, where n is the number of bars to rest for.  Low
melody durations appear below the staff

Tablature Legend
----------------
 h   - hammer-on
 p   - pull-off
 b   - bend
 pb  - pre-bend
 r   - bend release (if no number after the r, then release immediately)
 /\  - slide into or out of (from/to "nowhere")
 s   - legato slide
 S   - shift slide
<n> - natural harmonic
[n]  - artificial harmonic
n(n) - tapped harmonic
 ~   - vibrato
 tr  - trill
 T   - tap
 TP  - trem. picking
 PM  - palm muting
\n/  - tremolo bar dip; n = amount to dip
 \n  - tremolo bar down
 n/  - tremolo bar up
/n\  - tremolo bar inverted dip
 =   - hold bend; also acts as connecting device for hammers/pulls
 <> - volume swell (louder/softer)
 x   - on rhythm slash represents muted slash
 o   - on rhythm slash represents single note slash

Misc Legend
-----------
 |  - bar
||  - double bar
||o - repeat start
o|| - repeat end
*|  - double bar (ending)
 :  - bar (freetime)
 $  - Segno
 &  - Coda
Tempo markers - <E/E./Q/Q./H/H.> = BPM(8/16=s8/s16), where s8 = swing 8ths, s16 = swing 16ths


*** GuitarCats.com ***