Tabs by Artist
0-9 A B C D E F G H I J K L M N O P Q R S T U V W X Y Z

SLEEPWALK CAPSULES

As recorded by At The Drive-In

(From the 2000 Album RELATIONSHIP OF COMMAND)

Tablature (Tab) for Guitar
Transcribed by Eoin Watson (watsy@nme.com)
Words and Music by At The Drive-In


Cadd9

x 3 0 5 5 x
Bb

x 1 0 3 3 x
A

x 0 2 2 2 x
Em7

0 7 0 9 8 x
D

x 5 0 7 7 x
Asus2

x 0 2 2 0 x
Asus4

x 0 2 2 3 x
E5

0 2 2 x x x



Gtr I (E A D G B E) - 'Omar'

Gtr II (E A D G B E) - 'Jim'

Gtr III (E A D G B E) - 'Clean'


   Verse
    Q=160
    Cadd9              Bb
   4/4
    Gtr II
     E  E H     E  E    E  E H     E  E
     |  |       |  |    |  |       |  |
     /  /       /  /    /  /       /  /

    Gtr I
     E  E H     E  E    E  E H     E  E
||-------------------|------------------|
||o-15-15------15-15-|-15-15------15-15-|
||--12-12------12-12-|-12-12------12-12-|
||-------------------|------------------|
||o------------------|------------------|
||-------------------|------------------|


  A              Asus2         A           AsuA4 Asus4
   E  E  E  E  E  E  E  E    E  E  E  E  E  E  E  E
   |  |  |  |  |  |  |  |    |  |  |  |  |  |  |  |
   /  /  /  /  /  /  /  /    /  /  /  /  /  /  /  /

   E  E  E  E  E  E  E  E    E  E  E  E  E  E  E  E  4x
|--0--0--0--0--0--0--0--0-|--0--0--0--0--0--0--0--0--||
|-14-14-14-14-14-12-12-12-|-12-14-14-14-14-15-14-15-o||
|-12-12-12-12-12-12-12-12-|-12-12-12-12-12-12-12-12--||
|-------------------------|--------------------------||
|-------------------------|-------------------------o||
|-------------------------|--------------------------||


   Chorus
    Em7                     D
    E E E E  E  E    E  E   E E E  E   E  E     E  E
    | | | |  |  |    |  |   | | |  |   |  |     |  |
    / / / /  /  /    /  /   / / /  /   /  /     /  /

    E E E E +E  E    E  E   E E E  E   E  E     E  E
||--0-0-0-0-(0)-0----0--0-|--------------------------|
||o-7-7-7-7-(7)-5b6r(5)p0-|-----7-10-(10)------------|
||--0-0-0-0-(0)-0----0--0-|-7-9-0--0---0--9b10r(9)p0-|
||------------------------|-0-0-0--0---0--0-----0--0-|
||o-----------------------|--------------------------|
||------------------------|--------------------------|


  Cadd9
   E  E  E  E  E  E  E  E    E  E  E  E  E  E  E  E
   |  |  |  |  |  |  |  |    |  |  |  |  |  |  |  |
   /  /  /  /  /  /  /  /    /  /  /  /  /  /  /  /

   E  E  E  E  E  E  E  E    E  E  E  E  E  E  E  E   3x
|--0--0--0--0--0--0--0--0-|--0--0--0--0--0--0--0--0---||
|-15-15-15-15-15-15-15-15-|-15-15-15-15-15-15-15-15--o||
|--0--0--0--0--0--0--0--0-|--0--0--0--0--0--0--0--0---||
|-------------------------|---------------------------||
|-------------------------|--------------------------o||
|-------------------------|---------------------------||


  Em7                     D
  E E E E  E  E    E  E   E E E  E   E  E     E  E
  | | | |  |  |    |  |   | | |  |   |  |     |  |
  / / / /  /  /    /  /   / / /  /   /  /     /  /

  E E E E +E  E    E  E   E E E  E   E  E     E  E
|-0-0-0-0-(0)-0----0--0-|--------------------------|
|-7-7-7-7-(7)-5b6r(5)p0-|-----7-10-(10)------------|
|-0-0-0-0-(0)-0----0--0-|-7-9-0--0---0--9b10r(9)p0-|
|-----------------------|-0-0-0--0---0--0-----0--0-|
|-----------------------|--------------------------|
|-----------------------|--------------------------|


  Cadd9
   E  E  E  E  E  E  E  E    E  E  E  E E E    Q
   |  |  |  |  |  |  |  |    |  |  |  | |
   /  /  /  /  /  /  /  /    /  /  /  / /

                                          Gtrs I, II
   E  E  E  E  E  E  E  E    E  E  E  E E E   +E  E
|--0--0--0--0--0--0--0--0-|--0--0--0--0-0-----------||
|-15-15-15-15-15-15-15-15-|-15-15-15-15-0-----------||
|--0--0--0--0--0--0--0--0-|--0--0--0--0-0-4b5r(4)-0-||
|-------------------------|-------------------------||
|-------------------------|-------------------------||
|-------------------------|-------------------------||


   Verse
    Cadd9              Bb
   4/4
    Gtr II
     E  E H     E  E    E  E H     E  E
     |  |       |  |    |  |       |  |
     /  /       /  /    /  /       /  /

    Gtr I
     E  E H     E  E    E  E H     E  E
||-------------------|------------------|
||o-15-15------15-15-|-15-15------15-15-|
||--12-12------12-12-|-12-12------12-12-|
||-------------------|------------------|
||o------------------|------------------|
||-------------------|------------------|


  A              Asus2         A           AsuA4 Asus4
   E  E  E  E  E  E  E  E    E  E  E  E  E  E  E  E
   |  |  |  |  |  |  |  |    |  |  |  |  |  |  |  |
   /  /  /  /  /  /  /  /    /  /  /  /  /  /  /  /

   E  E  E  E  E  E  E  E    E  E  E  E  E  E  E  E  4x
|--0--0--0--0--0--0--0--0-|--0--0--0--0--0--0--0--0--||
|-14-14-14-14-14-12-12-12-|-12-14-14-14-14-15-14-15-o||
|-12-12-12-12-12-12-12-12-|-12-12-12-12-12-12-12-12--||
|-------------------------|--------------------------||
|-------------------------|-------------------------o||
|-------------------------|--------------------------||


   Chorus
    Em7                     D
    E E E E  E  E    E  E   E E E  E   E  E     E  E
    | | | |  |  |    |  |   | | |  |   |  |     |  |
    / / / /  /  /    /  /   / / /  /   /  /     /  /

    E E E E +E  E    E  E   E E E  E   E  E     E  E
||--0-0-0-0-(0)-0----0--0-|--------------------------|
||o-7-7-7-7-(7)-5b6r(5)p0-|-----7-10-(10)------------|
||--0-0-0-0-(0)-0----0--0-|-7-9-0--0---0--9b10r(9)p0-|
||------------------------|-0-0-0--0---0--0-----0--0-|
||o-----------------------|--------------------------|
||------------------------|--------------------------|


  Cadd9
   E  E  E  E  E  E  E  E    E  E  E  E  E  E  E  E
   |  |  |  |  |  |  |  |    |  |  |  |  |  |  |  |
   /  /  /  /  /  /  /  /    /  /  /  /  /  /  /  /

   E  E  E  E  E  E  E  E    E  E  E  E  E  E  E  E   4x
|--0--0--0--0--0--0--0--0-|--0--0--0--0--0--0--0--0---||
|-15-15-15-15-15-15-15-15-|-15-15-15-15-15-15-15-15--o||
|--0--0--0--0--0--0--0--0-|--0--0--0--0--0--0--0--0---||
|-------------------------|---------------------------||
|-------------------------|--------------------------o||
|-------------------------|---------------------------||


 Bridge
  Cadd9
 2/4          4/4
  E E   Q       W
  |
  /

               Gtr I
                      >
  |---3---|     |-3-| |-3-|
  q   q   q     q q q q q q
|-----------||----------------|
|-0---0---0-||--0-0-0-0-0-0---|
|-0---0---0-||--0-0-0-0-0-0---|
|-----------||----------------|
|-----------||----------------|
|-----------||----------------|
|
|              Gtr III
| H             W
|-----------||-^0-------------|
|-----------||-^0-------------|
|-----------||-^2-------------|
|-----------||-^2-------------|
|-----------||-^0-------------|
|-----------||----------------|


   W                          W              W
   |---3----|      |-3--|
   q      q q      q  q q     Q.   E Q  Q    Q.   E H
|--------------------------|---------0-----|--------0----|
|--0------0-0------0--0-0--|-------3-------|------3------|
|--0------0-0------0--0-0--|---------------|-------------|
|--------------------------|--4---------4--|-5-----------|
|--------------------------|---------------|-------------|
|--------------------------|---------------|-------------|
|
|  \0.25_______/
|  Q.         +E  +H         +W              W
|-!0----------(0)-(0)------|-(0)-----------|-------------|
|-!0----------(0)-(0)------|-(0)-----------|-------------|
|-!0----------(0)-(0)------|-(0)-----------|-------------|
|-!2----------(2)-(2)------|-(2)-----------|-------------|
|-!2----------(2)-(2)------|-(2)-----------|-------------|
|-!0----------(0)-(0)------|-(0)-----------|-------------|


  Gtr I
   |-3-| |-3-|      |---3----|
   q q q q q q      q      q q      e  E Q
|----------------|--------------------------|
|--3-3-----------|--3------3-0-----------0--|
|------0-0---0---|------------------0----0--|
|----------0-----|---------------------0----|
|----------------|--------------------------|
|----------------|--------------------------|
|
| Gtr III
|                   \0.25_______/
|  W                Q.         +E  +H
|-^0-------------|-!0----------(0)-(0)------|
|-^0-------------|-!0----------(0)-(0)------|
|-^2-------------|-!0----------(0)-(0)------|
|-^2-------------|-!2----------(2)-(2)------|
|-^0-------------|-!2----------(2)-(2)------|
|----------------|-!0----------(0)-(0)------|


  Q.     E Q   Q     Q.     E H
|------------------|----------0-------|
|----------3-------|--------3---------|
|--------4---------|------------------|
|-4------------4---|-5----------------|
|------------------|------------------|
|------------------|------------------|
|
| E  E E E E E E E   E  E E E E E E E
|------------------|------------------|
|------------------|------------------|
|------------------|------------------|
|------0-----0---0-|------0-----0---0-|
|----0-----0-------|----0-----0-------|
|-3------3-----2---|-3------3-----2---|


   |-3-| |-3-|
   q q q q q q      e      Q   Q      E Q     Q.   E Q  Q    Q.   E H
|----------------|-------------------------|---------------|--------0----|
|--3-3-----------|--3------3---0-----------|---------3-----|------3------|
|------0-0---0---|--------------------0----|-------4-------|-------------|
|----------0-----|----------------------0--|--4---------4--|-5-----------|
|----------------|-------------------------|---------------|-------------|
|----------------|-------------------------|---------------|-------------|
|
|                   \0.25______/
|  W                Q.        +E  +H         +W              W
|-^0-------------|-!0---------(0)-(0)------|-(0)-----------|-------------|
|-^0-------------|-!0---------(0)-(0)------|-(0)-----------|-------------|
|-^2-------------|-!0---------(0)-(0)------|-(0)-----------|-------------|
|-^2-------------|-!2---------(2)-(2)------|-(2)-----------|-------------|
|-^0-------------|-!2---------(2)-(2)------|-(2)-----------|-------------|
|----------------|-!0---------(0)-(0)------|-(0)-----------|-------------|


   |-3-| |-3-|      |---3----|      |-3--|
   q q q q q q      q      q q      q  q q
|--2-2-2---------|--------------------------|
|--------3-3-3---|-----------3------0-------|
|----------------|--0------0-----------0----|
|----------------|-----------------------0--|
|----------------|--------------------------|
|----------------|--------------------------|
|
|                   \0.25_______/
|  W                Q.         +E  +H
|-^0-------------|-!0----------(0)-(0)------|
|-^0-------------|-!0----------(0)-(0)------|
|-^2-------------|-!0----------(0)-(0)------|
|-^2-------------|-!2----------(2)-(2)------|
|-^0-------------|-!2----------(2)-(2)------|
|----------------|-!0----------(0)-(0)------|


  E E E E Q   Q     E E E E H
|---------0-------|---------0-------|
|-----3-----------|-----3-----------|
|---4---4---------|---4---4---------|
|-4-----------4---|-5---------------|
|-----------------|-----------------|
|-----------------|-----------------|
|
| E E E E E E E E   E E E E E E E E
|-----------------|-----------------|
|-----------------|-----------------|
|-----------------|-----------------|
|-----0-----0---0-|-----0-----0---0-|
|---0-----0-------|---0-----0-------|
|-3-----3-----2---|-3-----3-----2---|


   E q  E q  Q     E      q   E   q   Q     Q.   E Q  Q    Q.   E H
|----2----------|------------------------|---------------|--------0----|
|-------3-------|---------3---0----------|---------3-----|------3------|
|---------2-----|-----------------0------|-------4-------|-------------|
|------------4--|---------------------0--|--4---------4--|-5-----------|
|---------------|------------------------|---------------|-------------|
|---------------|------------------------|---------------|-------------|
|
|                  \0.25______/
|  W               Q.        +E  +H        +W              W
|-^0------------|-!0---------(0)-(0)-----|-(0)-----------|-------------|
|-^0------------|-!0---------(0)-(0)-----|-(0)-----------|-------------|
|-^2------------|-!0---------(0)-(0)-----|-(0)-----------|-------------|
|-^2------------|-!2---------(2)-(2)-----|-(2)-----------|-------------|
|-^0------------|-!2---------(2)-(2)-----|-(2)-----------|-------------|
|---------------|-!0---------(0)-(0)-----|-(0)-----------|-------------|


   |-3-| |-3-|      |---3----|      |-3--|
   q q q q q q      q      q q      q  q q
|--2-2-2---------|--------------------------|
|--------3-3-3---|-----------3------0-------|
|----------------|--0------0-----------0----|
|----------------|-----------------------0--|
|----------------|--------------------------|
|----------------|--------------------------|
|
|                   \0.25_______/
|  W                Q.         +E  +H
|-^0-------------|-!0----------(0)-(0)------|
|-^0-------------|-!0----------(0)-(0)------|
|-^2-------------|-!0----------(0)-(0)------|
|-^2-------------|-!2----------(2)-(2)------|
|-^0-------------|-!2----------(2)-(2)------|
|----------------|-!0----------(0)-(0)------|


  E E E E Q   Q     E E E E H
|---------0-------|---------0-------|
|-----3-----------|-----3-----------|
|---4---4---------|---4---4---------|
|-4-----------4---|-5---------------|
|-----------------|-----------------|
|-----------------|-----------------|
|
| E E E E E E E E   E E E E E E E E
|-----------------|-----------------|
|-----------------|-----------------|
|-----------------|-----------------|
|-----0-----0---0-|-----0-----0---0-|
|---0-----0-------|---0-----0-------|
|-3-----3-----2---|-3-----3-----2---|


   |-3-| |-3-|      |---3----|
   q q q q q q      q      q q      e  E E E
|----------------|---------------------------|
|--3-3-----------|--3------3-0-------------0-|
|------0-0---0---|------------------0----0---|
|----------0-----|---------------------0-----|
|----------------|---------------------------|
|----------------|---------------------------|
|
|                   \0.25_______/
|  W                Q.         +E  +H
|-^0-------------|-!0----------(0)-(0)-------|
|-^0-------------|-!0----------(0)-(0)-------|
|-^2-------------|-!0----------(0)-(0)-------|
|-^2-------------|-!2----------(2)-(2)-------|
|-^0-------------|-!2----------(2)-(2)-------|
|----------------|-!0----------(0)-(0)-------|


  E E E E E E E E   E E E E H
|---------0-------|---------0-------||
|-----3-----3---3-|-----3-----------||
|---4---4-----4---|---4---4---------||
|-4---------------|-5---------------||
|-----------------|-----------------||
|-----------------|-----------------||
|
| E E E E E E E E   E E E E E E E E
|-----------------|-----------------||
|-----------------|-----------------||
|-----------------|-----------------||
|-----0-----0---0-|-----0-----0---0-||
|---0-----0-------|---0-----0-------||
|-3-----3-----2---|-3-----3-----2---||


 Guitar Break
  Gtrs I, II
  Q  +E  Q  +E  E +E    Q.   +E  Q.   +E    Q  +E  Q  +E  E +E    W
|---------------------|-------------------|---------------------|----------|
|---------------------|-------------------|---------------------|----------|
|---------------------|-------------------|---------------------|----------|
|---------------------|-------------------|---------------------|----------|
|---------------------|-------------------|---------------------|----------|
|-6--(6)S5--(5)S3-(3)S|=6----(6)S2----(2)S|=6--(6)S5--(5)S3-(3)S|=9tr10----|


   Verse
    Cadd9              Bb
    Gtr II
     E  E Q   Q   Q     E  E Q   Q   Q
     |  |     |   |     |  |     |   |
     /  /     o   o     /  /     o   o

    Gtr I
     E  E Q   Q   Q     E  E Q   Q   Q
||-----------15------|----------15------|
||o-15-15--------15--|-15-15--------15--|
||--12-12------------|-12-12------------|
||-------------------|------------------|
||o------------------|------------------|
||-------------------|------------------|


  A              Asus2         A           AsuA4 Asus4
   E  E  E  E  E  E  E  E    E  E  E  E  E  E  E  E
   |  |  |  |  |  |  |  |    |  |  |  |  |  |  |  |
   /  /  /  /  /  /  /  /    /  /  /  /  /  /  /  /

   E  E  E  E  E  E  E  E    E  E  E  E  E  E  E  E   4x
|--0--0--0--0--0--0--0--0-|--0--0--0--0--0--0--0--0---||
|-14-14-14-14-14-12-12-12-|-12-14-14-14-14-15-14-15--o||
|-12-12-12-12-12-12-12-12-|-12-12-12-12-12-12-12-12---||
|-------------------------|---------------------------||
|-------------------------|--------------------------o||
|-------------------------|---------------------------||


   Chorus
    Em7                     D
    E E E E  E  E    E  E   E E E  E   E  E     E  E
    | | | |  |  |    |  |   | | |  |   |  |     |  |
    / / / /  /  /    /  /   / / /  /   /  /     /  /

    E E E E +E  E    E  E   E E E  E   E  E     E  E
||--0-0-0-0-(0)-0----0--0-|--------------------------|
||o-7-7-7-7-(7)-5b6r(5)p0-|-----7-10-(10)------------|
||--0-0-0-0-(0)-0----0--0-|-7-9-0--0---0--9b10r(9)p0-|
||------------------------|-0-0-0--0---0--0-----0--0-|
||o-----------------------|--------------------------|
||------------------------|--------------------------|


  Cadd9
   E  E  E  E  E  E  E  E    E  E  E  E  E  E  E  E
   |  |  |  |  |  |  |  |    |  |  |  |  |  |  |  |
   /  /  /  /  /  /  /  /    /  /  /  /  /  /  /  /

   E  E  E  E  E  E  E  E    E  E  E  E  E  E  E  E   4x
|--0--0--0--0--0--0--0--0-|--0--0--0--0--0--0--0--0---||
|-15-15-15-15-15-15-15-15-|-15-15-15-15-15-15-15-15--o||
|--0--0--0--0--0--0--0--0-|--0--0--0--0--0--0--0--0---||
|-------------------------|---------------------------||
|-------------------------|--------------------------o||
|-------------------------|---------------------------||


  E5
  W          +W           +W           +W
  |           |            |            |
  /           /            /            /

  W          +W           +W           +W
|----------|------------|------------|--------*|
|-0--------|-(0)--------|-(0)--------|-(0)----*|
|-9--------|-(9)--------|-(9)--------|-(9)----*|
|-9--------|-(9)--------|-(9)--------|-(9)----*|
|-7--------|-(7)--------|-(7)--------|-(7)----*|
|-0--------|-(0)--------|-(0)--------|-(0)----*|



Duration Legend
---------------
W - whole; H - half; Q - quarter; E - 8th; S - 16th; T - 32nd; X - 64th; a - acciaccatura
+ - note tied to previous; . - note dotted; .. - note double dotted
Uncapitalized letters represent notes that are staccato (1/2 duration)
Irregular groupings are notated above the duration line
Duration letters will always appear directly above the note/fret number it represents the
duration for.  Duration letters with no fret number below them represent rests.  Multi-
bar rests are notated in the form Wxn, where n is the number of bars to rest for.  Low
melody durations appear below the staff

Tablature Legend
----------------
 h   - hammer-on
 p   - pull-off
 b   - bend
 pb  - pre-bend
 r   - bend release (if no number after the r, then release immediately)
 /\  - slide into or out of (from/to "nowhere")
 s   - legato slide
 S   - shift slide
<n> - natural harmonic
[n]  - artificial harmonic
n(n) - tapped harmonic
 ~   - vibrato
 tr  - trill
 T   - tap
 TP  - trem. picking
 PM  - palm muting
\n/  - tremolo bar dip; n = amount to dip
 \n  - tremolo bar down
 n/  - tremolo bar up
/n\  - tremolo bar inverted dip
 =   - hold bend; also acts as connecting device for hammers/pulls
 <> - volume swell (louder/softer)
 x   - on rhythm slash represents muted slash
 o   - on rhythm slash represents single note slash

Misc Legend
-----------
 |  - bar
||  - double bar
||o - repeat start
o|| - repeat end
*|  - double bar (ending)
 :  - bar (freetime)
 $  - Segno
 &  - Coda
Tempo markers - <E/E./Q/Q./H/H.> = BPM(8/16=s8/s16), where s8 = swing 8ths, s16 = swing 16ths


*** GuitarCats.com ***