Tabs by Artist
0-9 A B C D E F G H I J K L M N O P Q R S T U V W X Y Z

STAR SLIGHT

As recorded by At The Drive-In

(From the 1998 Album ACROBATIC TENEMENT)

Tablature (Tab) for Guitar
Transcribed by realsam33111
Words by Cedric Bixler Zavala, Jim Ward

Music by At The Drive In
Arranged by At The Drive-In



D5

x 5 7 7 x x
E5

x 7 9 9 x x
B5

x 2 4 4 x x
A5

x 0 2 2 x x
G5

3 5 5 x x x



Gtr I (E A D G B E) - 'Jim'

Gtr II (E A D G B E) - 'Ryan'


   Verse
    Q=140
    D5          E5            B5
   4/4
    Gtr I
    E E S S S S E E S S S S   E E S S S S E E S S S S   4x
||--------------------------|---------------------------||
||o-------------------------|--------------------------o||
||--7-7-7-7-7-7-9-9-9-9-9-9-|---------------------------||
||--7-7-7-7-7-7-9-9-9-9-9-9-|-9-9-9-9-9-9-9-9-9-9-9-9---||
||o-5-5-5-5-5-5-7-7-7-7-7-7-|-9-9-9-9-9-9-9-9-9-9-9-9--o||
||--------------------------|-7-7-7-7-7-7-7-7-7-7-7-7---||


 Pre-Chorus
  A5
  E E E S S E E E S S   E E E S S E E E S S
|---------------------|---------------------|
|---------------------|---------------------|
|-2-2-2-2-2-2-2-2-2-2-|-2-2-2-2-2-2-2-2-2-2-|
|-2-2-2-2-2-2-2-2-2-2-|-2-2-2-2-2-2-2-2-2-2-|
|-0-0-0-0-0-0-0-0-0-0-|-0-0-0-0-0-0-0-0-0-0-|
|---------------------|---------------------|


  B5            G5
  E E E E E E E E   +E  E E E E E E S S
|-----------------|----------------------|
|-----------------|----------------------|
|-----------------|----------------------|
|-4-4-4-4-4-4---5-|-(5)-5-5-5-5-5-5-5-5--|
|-2-2-2-2-2-2---5-|-(5)-5-5-5-5-5-5-5-5--|
|---------------3-|-(3)-3-3-3-3-3-3-3-3--|


 Chorus
  D5           E5            B5
  E  E S S S S E E S S S S    E  E  S  S S S E E S S S S
|--------------------------|-----------------------------|
|--------------------------|-----------------------------|
|-7--7-7-7-7-7-9-9-9-9-9-9-|-----------------------------|
|-7--7-7-7-7-7-9-9-9-9-9-9-|--9--9--9--9-9-9-9-9-9-9-9-9-|
|-5--5-5-5-5-5-7-7-7-7-7-7-|--9--9--9--9-9-9-9-9-9-9-9-9-|
|--------------------------|--7--7--7--7-7-7-7-7-7-7-7-7-|
|
|   Gtr II
| E  Q     Q     Q     E     +Q    +E    E   E E E   E
|--------------------------|-----------------------------|
|---10-----8-----7---------|-----------------------------|
|----------------------7---|-(7)---(7)---7---7-7-7---7---|
|--------------------------|-----------------------------|
|--------------------------|-----------------------------|
|--------------------------|-----------------------------|


  D5           E5             B5
  E  E S S S S E E S S  S S     E  E S S S S  E E S S S S
|---------------------------|-----------------------------|
|---------------------------|-----------------------------|
|-7--7-7-7-7-7-9-9-9-9--9-9-|-----------------------------|
|-7--7-7-7-7-7-9-9-9-9--9-9-|---9--9-9-9-9-9--9-9-9-9-9-9-|
|-5--5-5-5-5-5-7-7-7-7--7-7-|---9--9-9-9-9-9--9-9-9-9-9-9-|
|---------------------------|---7--7-7-7-7-7--7-7-7-7-7-7-|
|
| E  Q     Q     Q      E      +H             E E E   E
|----------------------10---|-(10)-----------10-8-7---8---|
|---10-----8-----7----------|-----------------------------|
|---------------------------|-----------------------------|
|---------------------------|-----------------------------|
|---------------------------|-----------------------------|
|---------------------------|-----------------------------|


  D5           E5            B5
  E  E S S S S E E S S S S    E    E  S    S S S E   E  S    S S S
|--------------------------|---------------------------------------|
|--------------------------|---------------------------------------|
|-7--7-7-7-7-7-9-9-9-9-9-9-|---------------------------------------|
|-7--7-7-7-7-7-9-9-9-9-9-9-|--9----9--9----9-9-9-9---9--9----9-9-9-|
|-5--5-5-5-5-5-7-7-7-7-7-7-|--9----9--9----9-9-9-9---9--9----9-9-9-|
|--------------------------|--7----7--7----7-7-7-7---7--7----7-7-7-|
|
| Gtr II
| E  Q     Q     Q     E     +Q      +Q          Q     +Q
|--------------------------|---------------------------------------|
|---10-----8-----7---------|---------------------------------------|
|----------------------7---|-(7)b8r==(7)b8r========================|
|--------------------------|---------------------7b8r==(7)b8-------|
|--------------------------|---------------------------------------|
|--------------------------|---------------------------------------|


  D5           E5             B5
  E  E S S S S E E S S  S S     E  E S S S S E E S S S S
|---------------------------|----------------------------|
|---------------------------|----------------------------|
|-7--7-7-7-7-7-9-9-9-9--9-9-|----------------------------|
|-7--7-7-7-7-7-9-9-9-9--9-9-|---9--9-9-9-9-9-9-9-9-9-9-9-|
|-5--5-5-5-5-5-7-7-7-7--7-7-|---9--9-9-9-9-9-9-9-9-9-9-9-|
|---------------------------|---7--7-7-7-7-7-7-7-7-7-7-7-|
|
| E  Q     Q     Q      E      +W
|----------------------10---|-(10)-----------------------|
|---10-----8-----7----------|----------------------------|
|---------------------------|----------------------------|
|---------------------------|----------------------------|
|---------------------------|----------------------------|
|---------------------------|----------------------------|


   Verse
    D5          E5            B5
    E E S S S S E E S S S S   E E S S S S E E S S S S  4x
||--------------------------|--------------------------||
||o-------------------------|-------------------------o||
||--7-7-7-7-7-7-9-9-9-9-9-9-|--------------------------||
||--7-7-7-7-7-7-9-9-9-9-9-9-|-9-9-9-9-9-9-9-9-9-9-9-9--||
||o-5-5-5-5-5-5-7-7-7-7-7-7-|-9-9-9-9-9-9-9-9-9-9-9-9-o||
||--------------------------|-7-7-7-7-7-7-7-7-7-7-7-7--||


   Outro
    A5
    E E E E E E E S S   E E E E E E E S S
||--------------------|-------------------|
||o-------------------|-------------------|
||--2-2-2-2-2-2-2-2-2-|-2-2-2-2-2-2-2-2-2-|
||--2-2-2-2-2-2-2-2-2-|-2-2-2-2-2-2-2-2-2-|
||o-0-0-0-0-0-0-0-0-0-|-0-0-0-0-0-0-0-0-0-|
||--------------------|-------------------|


  B5            G5
  E E E E E E E E   +E  E E E E E E E   3x
|-----------------|---------------------||
|-----------------|--------------------o||
|-----------------|---------------------||
|-4-4-4-4-4-4---5-|-(5)-5-5-5-5-5-5-5---||
|-2-2-2-2-2-2---5-|-(5)-5-5-5-5-5-5-5--o||
|---------------3-|-(3)-3-3-3-3-3-3-3---||


  A5                                      B5
  E E E E E E E S S   E E E E E E E S S   E E E E E E Q
|-------------------|-------------------|-----------------*|
|-------------------|-------------------|-----------------*|
|-2-2-2-2-2-2-2-2-2-|-2-2-2-2-2-2-2-2-2-|-----------------*|
|-2-2-2-2-2-2-2-2-2-|-2-2-2-2-2-2-2-2-2-|-4-4-4-4-4-4-----*|
|-0-0-0-0-0-0-0-0-0-|-0-0-0-0-0-0-0-0-0-|-2-2-2-2-2-2-----*|
|-------------------|-------------------|-----------------*|



Duration Legend
---------------
W - whole; H - half; Q - quarter; E - 8th; S - 16th; T - 32nd; X - 64th; a - acciaccatura
+ - note tied to previous; . - note dotted; .. - note double dotted
Uncapitalized letters represent notes that are staccato (1/2 duration)
Irregular groupings are notated above the duration line
Duration letters will always appear directly above the note/fret number it represents the
duration for.  Duration letters with no fret number below them represent rests.  Multi-
bar rests are notated in the form Wxn, where n is the number of bars to rest for.  Low
melody durations appear below the staff

Tablature Legend
----------------
 h   - hammer-on
 p   - pull-off
 b   - bend
 pb  - pre-bend
 r   - bend release (if no number after the r, then release immediately)
 /\  - slide into or out of (from/to "nowhere")
 s   - legato slide
 S   - shift slide
<n> - natural harmonic
[n]  - artificial harmonic
n(n) - tapped harmonic
 ~   - vibrato
 tr  - trill
 T   - tap
 TP  - trem. picking
 PM  - palm muting
\n/  - tremolo bar dip; n = amount to dip
 \n  - tremolo bar down
 n/  - tremolo bar up
/n\  - tremolo bar inverted dip
 =   - hold bend; also acts as connecting device for hammers/pulls
 <> - volume swell (louder/softer)
 x   - on rhythm slash represents muted slash
 o   - on rhythm slash represents single note slash

Misc Legend
-----------
 |  - bar
||  - double bar
||o - repeat start
o|| - repeat end
*|  - double bar (ending)
 :  - bar (freetime)
 $  - Segno
 &  - Coda
Tempo markers - <E/E./Q/Q./H/H.> = BPM(8/16=s8/s16), where s8 = swing 8ths, s16 = swing 16ths


*** GuitarCats.com ***