Tabs by Artist
0-9 A B C D E F G H I J K L M N O P Q R S T U V W X Y Z

TRANSATLANTIC FOE

As recorded by At The Drive In

(From the 1998 Album IN/CASINO/OUT)

Tablature (Tab) for Guitar
Transcribed by Robert Liu
Words and Music by At The Drive In
Arranged by At The Drive In

Gtr I (E A D G B E) - 'Omar (Clean)'

Gtr II (E A D G B E) - 'Jim (Clean)'

Gtr III (E A D G B E) - 'Omar (Distorted)'

Gtr IV (E A D G B E) - 'Jim (Distorted)'


 Intro
  E=175
  N.C.(E)
 4/4
  Gtr I
  E E E E E E Q    E E E E E E Q
|-------7-5------|-------7-5------|
|-5---5-----5----|-5---5-----5----|
|---6---------6--|---6---------6--|
|----------------|----------------|
|----------------|----------------|
|----------------|----------------|


  N.C.(E)
  E E E E E E Q    E E E E E E Q
|-------7-5------|-------7-5------|
|-5---5-----5----|-5---5-----5----|
|---6---------6--|---6---------6--|
|----------------|----------------|
|----------------|----------------|
|----------------|----------------|
|
| Gtr II
| E E E E H        E E E E H
|----------------|----------------|
|-7-----9--------|-7-----9--------|
|---8-9---9------|---8-9---9------|
|----------------|----------------|
|----------------|----------------|
|----------------|----------------|


                           H=H
  N.C.(E)
                  7/8
  E E E E E E Q    E E E E E  E E
|-------7-5------|-------7-5------|
|-5---5-----5----|-5---5------5---|
|---6---------6--|---6----------6-|
|----------------|----------------|
|----------------|----------------|
|----------------|----------------|
|
| E E E E H        E E E E Q.
|----------------|----------------|
|-7-----9--------|-7-----9--------|
|---8-9---9------|---8-9---9------|
|----------------|----------------|
|----------------|----------------|
|----------------|----------------|


   Chorus
    E=215
    E5      G#m7           E5E5/C# E5      G#m7           E5E5/C#
   4/4
    Gtr III
    E  S  S  E  +T  T Q  S E S S   E  S  S  E  +T  T Q  S E S S
||-----------7--(7)--------------|----------7--(7)---------------||
||o----------7--(7)--------------|----------7--(7)--------------o||
||-----------x--(x)--------------|----------x--(x)---------------||
||-----------6--(6)--------------|----------6--(6)---------------||
||o-2--2--2--x--(x)----------4-4-|-2--2--2--x--(x)----------4-4-o||
||--0--0--0--4--(4)s0------0-----|-0--0--0--4--(4)s0------0------||
|
|   Gtr IV
|   E  S  S  E  +T  T Q  S E E     E  S  S  E  +T  T Q  S E E
||-------------------------------|-------------------------------||
||o---12-12-12-(12)--------------|---12-12-12-(12)--------------o||
||--9-11-11-11-(11)--------9-9---|-9-11-11-11-(11)--------9-9----||
||--9--x--x--x--(x)--------9-9---|-9--x--x--x--(x)--------9-9----||
||o-7-11-11-11-(11)s7------7-x---|-7-11-11-11-(11)s7------7-x---o||
||--0----------------------0-9---|-0----------------------0-9----||


 Verse
  E                                                      G#m7
  Gtr I
  s     E     s  E       s  E.          E   E       E    S E S E S E. E E E
|---------------------------7-----------5--------------|-----------7--5-----|
|-------5--------5--------------------------5----------|---5---5--------5---|
|-6-----------6----------6--------------------------6--|-6---6---6--------6-|
|------------------------------------------------------|--------------------|
|------------------------------------------------------|--------------------|
|------------------------------------------------------|--------------------|
|
|                                                        Gtr II
| >
| E       +E    +E      +E     +E      +E  +E      +E    W
|------------------------------------------------------|-7------------------|
|------------------------------------------------------|-7------------------|
|------------------------------------------------------|-x------------------|
|------------------------------------------------------|-6------------------|
|-7b7.5r==(7)---(7)b7.5r(7)----(7)b7.5r(7)-(7)b7.5r(7)-|-x------------------|
|-0-------(0)---(0)-----(0)----(0)-----(0)-(0)-----(0)-|-4------------------|


  A                    C#m
  S E S E S E. E E E   S  E S  E S  E.    E E E
|-----------7--5-----|--------------7-----5-----|
|---5---5--------5---|----5----5------------5---|
|-6---6---6--------6-|-6----6----6------------6-|
|--------------------|--------------------------|
|--------------------|--------------------------|
|--------------------|--------------------------|
|
| W                    E.   E.   E.    E.   E E
|--------------------|--------------------------|
|-2------------------|-5------------------------|
|-2------------------|-6----4-------------------|
|-2------------------|-6---------6-----4--------|
|-0------------------|-4--------------------7-4-|
|--------------------|--------------------------|


    E5                   G#m7
    s E s E s E. E E E   S E S E S E. E E E
||------------7--5-----|-----------7--5-----|
||o---5---5--------5---|---5---5--------5---|
||--6---6---6--------6-|-6---6---6--------6-|
||---------------------|--------------------|
||o--------------------|--------------------|
||---------------------|--------------------|
|
|   W                    W
||---------------------|-7------------------|
||o--------------------|-7------------------|
||--9------------------|-x------------------|
||--9------------------|-6------------------|
||o-7------------------|-x------------------|
||--0------------------|-4------------------|


  A                    C#m
  S E S E S E. E E E   S  E S  E S  E.    E E E
|-----------7--5-----|--------------7-----5------||
|---5---5--------5---|----5----5------------5---o||
|-6---6---6--------6-|-6----6----6------------6--||
|--------------------|---------------------------||
|--------------------|--------------------------o||
|--------------------|---------------------------||
|
| W                    E.   E.   E.    E.   E E
|--------------------|---------------------------||
|-2------------------|-5------------------------o||
|-2------------------|-6----4--------------------||
|-2------------------|-6---------6-----4---------||
|-0------------------|-4--------------------7-4-o||
|--------------------|---------------------------||


  E5                   G#m7                     A
  s E s E s E. E E E   S  E S E S  E. E E E     S  E S E S  E. E E E
|-----------7--5-----|-------------7--5-------|-------------7--5--------|
|---5---5--------5---|----5---5---------5-----|----5---5---------5------|
|-6---6---6--------6-|-6----6---6---------6---|-6----6---6---------6----|
|--------------------|------------------------|-------------------------|
|--------------------|------------------------|-------------------------|
|--------------------|------------------------|-------------------------|
|
| W                    Q.       Q.      E S S   Q.       Q.      E S S
|--------------------|-7--------7-------7-7-7-|-------------------------|
|--------------------|-7--------7-------7-7-7-|-2--------2-------2-2-2--|
|-9------------------|-x--------x-------x-x-x-|-2--------2-------2-2-2--|
|-9------------------|-6--------6-------6-6-6-|-2--------2-------2-2-2--|
|-7------------------|-x--------x-------x-x-x-|-0--------0-------0-0-0--|
|-0------------------|-4--------4-------4-4-4-|-------------------------|


   Out-Chorus
    C#5           G#5                 C#5           G#5
   8/8
    Gtr III
    S S S S S S S S S S S S S S S S   S S S S S S S S S S S S S S S S
||----------------------------------|---------------------------------|
||o---------------------------------|---------------------------------|
||----------------------------------|---------------------------------|
||--6-6-6-6-6-6-6-------------------|-6-6-6-6-6-6-6-------------------|
||o-4-4-4-4-4-4-4-6-6-6-6-6-6-6-6-6-|-4-4-4-4-4-4-4-6-6-6-6-6-6-6-6-6-|
||----------------4-4-4-4-4-4-4-4-4-|---------------4-4-4-4-4-4-4-4-4-|
|
|   Gtr IV
|   S S S S S S S S S S S S S S S S   S S S S S S S S S S S S S S S S
||----------------------------------|---------------------------------|
||o---------------------------------|---------------------------------|
||--9-9---6-6-6---8-8-8---4-4-4---4-|-9-9---6-6-6---8-8-8---4-4-4---4-|
||--x-x---x-x-x---x-x-x---x-x-x---x-|-x-x---x-x-x---x-x-x---x-x-x---x-|
||o-7-7---4-4-4---6-6-6---2-2-2---2-|-7-7---4-4-4---6-6-6---2-2-2---2-|
||----------------------------------|---------------------------------|


  C#5           G#5                 B               A
  S S S S S S S S S S S S S S S S   E E S S S E S E S S S S
|---------------------------------|--------------------------||
|---------------------------------|-------------------------o||
|---------------------------------|-8-8-8-8-8-8-8-8-6-6-6-6--||
|-6-6-6-6-6-6-6-------------------|-x-x-x-x-x-x-x-x-x-x-x-x--||
|-4-4-4-4-4-4-4-6-6-6-6-6-6-6-6-6-|-9-9-9-9-9-9-9-9-7-7-7-7-o||
|---------------4-4-4-4-4-4-4-4-4-|-7-7-7-7-7-7-7-7-5-5-5-5--||
|
| S S S S S S S S S S S S S S S S   E E S S S E S E E   E
|---------------------------------|--------------------------||
|---------------------------------|-------------------------o||
|-9-9---6-6-6---8-8-8---4-4-4---4-|-8-8-8-8-8-8-8-8-6---6----||
|-x-x---x-x-x---x-x-x---x-x-x---x-|-x-x-x-x-x-x-x-x-x---x----||
|-7-7---4-4-4---6-6-6---2-2-2---2-|-9-9-9-9-9-9-9-9-7---7---o||
|---------------------------------|--------------------------||


   Verse
    E5            G#m7                       A             C#5     G#5
    S S S S S S S  S S  S  S S  S  S  S  S   S S S S S S S S S S S S S S S S  6x
||-----------------7-7--7--7-7--7--7--7--7-|----------------------------------||
||o----------------7-7--7--7-7--7--7--7--7-|-2-2-2-2-2-2-2-------------------o||
||-----------------x-x--x--x-x--x--x--x--x-|-2-2-2-2-2-2-2--------------------||
||-----------------6-6--6--6-6--6--6--6--6-|-2-2-2-2-2-2-2-6-6-6-6------------||
||o-2-2-2-2-2-2-2--x-x--x--x-x--x--x--x--x-|-0-0-0-0-0-0-0-4-4-4-4-6-6-6-6-6-o||
||--0-0-0-0-0-0-0--4-4--4--4-4--4--4--4--4-|-----------------------4-4-4-4-4--||
|
|   E   E   S S S  E    S  E    S  S  S  S   E   E   S S S S S S S S S S E    6x
||-----------------------------------------|----------------------------------||
||o---------------12---12-12---12-12-12-12-|---------------------------------o||
||--9---9---9-9-9-11---11-11---11-11-11-11-|-6---6---6-6-6-9-9-9---8-8-8-4----||
||--9---9---9-9-9--x----x--x----x--x--x--x-|-x---x---x-x-x-x-x-x---x-x-x-x----||
||o-7---7---7-7-7-11---11-11---11-11-11-11-|-7---7---7-7-7-7-7-7---6-6-6-2---o||
||--0---0---0-0-0--------------------------|----------------------------------||


   Chorus
    E5      G#m7           E5E5/C# E5      G#m7           E5E5/C#
   4/4
    E  S  S  E  +T  T Q  S E S S   E  S  S  E  +T  T Q  S E S S
||-----------7--(7)--------------|----------7--(7)---------------||
||o----------7--(7)--------------|----------7--(7)--------------o||
||-----------x--(x)--------------|----------x--(x)---------------||
||-----------6--(6)--------------|----------6--(6)---------------||
||o-2--2--2--x--(x)----------4-4-|-2--2--2--x--(x)----------4-4-o||
||--0--0--0--4--(4)s0------0-----|-0--0--0--4--(4)s0------0------||
|
|   E  S  S  E  +T  T Q  S E E     E  S  S  E  +T  T Q  S E E
||-------------------------------|-------------------------------||
||o---12-12-12-(12)--------------|---12-12-12-(12)--------------o||
||--9-11-11-11-(11)--------9-9---|-9-11-11-11-(11)--------9-9----||
||--9--x--x--x--(x)--------9-9---|-9--x--x--x--(x)--------9-9----||
||o-7-11-11-11-(11)s7------7-x---|-7-11-11-11-(11)s7------7-x---o||
||--0----------------------0-9---|-0----------------------0-9----||


 Interlude
  E
  Gtr I
  W
|-----------------------------------------------|
|-5---------------------------------------------|
|-----------------------------------------------|
|-----------------------------------------------|
|-----------------------------------------------|
|-----------------------------------------------|
|
| >
| E     +E  +E      +E  +E      +E  +E      +E
|-----------------------------------------------|
|-----------------------------------------------|
|-----------------------------------------------|
|-----------------------------------------------|
|-7b7.5r(7)-(7)b7.5r(7)-(7)b7.5r(7)-(7)b7.5r(7)-|
|-0-----(0)-(0)-----(0)-(0)-----(0)-(0)-----(0)-|


  G#m7                      A             C#m
  E. E. H    +E     E.   E.    H    +E    E. E. E. E. E E
|-----------------|------------5----(5)-|-------4---------|
|-5--4------------|------5--------------|----5-----5----5-|
|-------4----(4)--|-6-------------------|-6-----------6---|
|-----------------|---------------------|-----------------|
|-----------------|---------------------|-----------------|
|-----------------|---------------------|-----------------|
|
| Gtr II
|                   PM---|
| W                 s  e s  H.            E. E. E. E. E E
|-7---------------|---------------------|-----------------|
|-7---------------|---------2-----------|-5---------------|
|-x---------------|---------2-----------|-6--4------------|
|-6---------------|---------2-----------|-6-----6--4------|
|-x---------------|-0--0-0--0-----------|-4-----------7-4-|
|-4---------------|---------------------|-----------------|


  E5                G#m7                      A             C#m
  H.      +E  S S   E. E. H    +E     E.   E.    H    +E    E. E. E. E. E E
|-----------------|-----------------|------------5----(5)-|-------4----------|
|-5-------(5)-5-5-|-5--4------------|------5--------------|----5-----5-------|
|-----------------|-------4----(4)--|-6-------------------|-6-----------6----|
|-----------------|-----------------|---------------------|------------------|
|-----------------|-----------------|---------------------|------------------|
|-----------------|-----------------|---------------------|------------------|
|
|                                     PM---|
| W                 W                 s  e s  H.            E. E. E. E. E E
|-----------------|-7---------------|---------------------|------------------|
|-----------------|-7---------------|---------2-----------|-5----------------|
|-9---------------|-x---------------|---------2-----------|-6--4-------------|
|-9---------------|-6---------------|---------2-----------|-6-----6--4-------|
|-7---------------|-x---------------|-0--0-0--0-----------|-4-----------7-4--|
|-0---------------|-4---------------|---------------------|------------------|


    E5                            G#m7
     S  E  S  E  S  E.  E  E  E    S  E  S  E  S  E.  E  E  E
||-----------------19--17-------|----------------19--17-------|
||o----17----17-----------17----|----17----17-----------17----|
||--18----18----18-----------18-|-18----18----18-----------18-|
||------------------------------|-----------------------------|
||o-----------------------------|-----------------------------|
||------------------------------|-----------------------------|
|
|    W                             W
||------------------------------|--7--------------------------|
||o-----------------------------|--7--------------------------|
||---9--------------------------|--x--------------------------|
||---9--------------------------|--6--------------------------|
||o--7--------------------------|--x--------------------------|
||---0--------------------------|--4--------------------------|


  A                             C#m
   S  E  S  E  S  E.  E  E  E    S   E  S   E  S   E.     E  E  E
|----------------19--17-------|-------------------19-----17--------||
|----17----17-----------17----|-----17-----17---------------17----o||
|-18----18----18-----------18-|-18-----18-----18---------------18--||
|-----------------------------|------------------------------------||
|-----------------------------|-----------------------------------o||
|-----------------------------|------------------------------------||
|
|  W                             E.     E.     E.     E.     E  E
|-----------------------------|------------------------------------||
|--2--------------------------|--5--------------------------------o||
|--2--------------------------|--6------4--------------------------||
|--2--------------------------|--6-------------6------4------------||
|--0--------------------------|--4---------------------------7--4-o||
|-----------------------------|------------------------------------||


   Chorus
    E5    G#m7                     E5 E5/C#E5
    Gtr III
     S  E     S  E   S     E.  E    E  E
||------------------------19--17---------|
||o----17-------17-----------------17----|
||--18-------18-----18----------------18-|
||---------------------------------------|
||o--------------------------------------|
||---------------------------------------|
|
|   Gtr IV
|    E     S  S  E  +T  T  Q     S  E  E
||---------------------------------------|
||o-------12-12-12-(12)------------------|
||---9----11-11-11-(11)-------------9--9-|
||---9-----x--x--x--(x)-------------9--9-|
||o--7----11-11-11-(11)s7-----------7--x-|
||---0------------------------------0--9-|


        B5/Ab                    E5 E5/C#
   S  E     S  E   S     E.  E    E  E  4x
|-----------------------19--17----------||
|----17-------17-----------------17----o||
|-18-------18-----18----------------18--||
|---------------------------------------||
|--------------------------------------o||
|---------------------------------------||
|
|  E     S  S  E  +T  T  Q     S  E  E  4x
|---------------------------------------||
|-------12-12-12-(12)------------------o||
|--9----11-11-11-(11)-------------9--9--||
|--9-----x--x--x--(x)-------------9--9--||
|--7----11-11-11-(11)s7-----------7--x-o||
|--0------------------------------0--9--||


   Out-Chorus
    E5
   8/8
    S S S S S S S S S S S S S S S S
||----------------------------------|
||o---------------------------------|
||----------------------------------|
||----------------------------------|
||o-2-2-2-2-2-2-2-2-2-2-2-2-2-2-2-2-|
||--0-0-0-0-0-0-0-0-0-0-0-0-0-0-0-0-|
|
|   E   E   S S S E   S E   S S S S
||----------------------------------|
||o---------------------------------|
||--9---9---9-9-9-9---9-9---9-9-9-9-|
||--9---9---9-9-9-9---9-9---9-9-9-9-|
||o-7---7---7-7-7-7---7-7---7-7-7-7-|
||--0---0---0-0-0-0---0-0---0-0-0-0-|


  G#m7                                          Esus4/A     Esus4/A
   S S  S S  S  S  S  S S  S  S S  S  S  S  S   S S S S S S S S S S S S S S S S
|--7-7--7-7--7--7--7--7-7--7--7-7--7--7--7--7-|---------------------------------|
|--7-7--7-7--7--7--7--7-7--7--7-7--7--7--7--7-|-0-0-0-2-2-2-0-0-0-0-0-0-0-0-0-0-|
|--x-x--x-x--x--x--x--x-x--x--x-x--x--x--x--x-|-2-2-2-2-2-2-2-2-2-2-2-2-2-2-2-2-|
|--6-6--6-6--6--6--6--6-6--6--6-6--6--6--6--6-|-2-2-2-2-2-2-2-2-2-2-2-2-2-2-2-2-|
|--x-x--x-x--x--x--x--x-x--x--x-x--x--x--x--x-|-0-0-0-0-0-0-0-0-0-0-0-0-0-0-0-0-|
|--4-4--4-4--4--4--4--4-4--4--4-4--4--4--4--4-|---------------------------------|
|
|  E    E    S  S  S  E    S  E    S  S  S  S   E   E   S S S E   S E   S S S S
|---------------------------------------------|---------------------------------|
|-12---12---12-12-12-12---12-12---12-12-12-12-|---------------------------------|
|-11---11---11-11-11-11---11-11---11-11-11-11-|-6---6---6-6-6-6---6-6---6-6-6-6-|
|--x----x----x--x--x--x----x--x----x--x--x--x-|-x---x---x-x-x-x---x-x---x-x-x-x-|
|-11---11---11-11-11-11---11-11---11-11-11-11-|-7---7---7-7-7-7---7-7---7-7-7-7-|
|---------------------------------------------|---------------------------------|


  C#5           G#5                 C#5           G#5
  S S S S S S S S S S S S S S S S   S S S S S S S S S S S S S S S S
|---------------------------------|----------------------------------|
|---------------------------------|----------------------------------|
|---------------------------------|----------------------------------|
|-6-6-6-6-6-6-6-------------------|-6-6-6-6-6-6-6--------------------|
|-4-4-4-4-4-4-4-6-6-6-6-6-6-6-6-6-|-4-4-4-4-4-4-4-6-6-6-6-6-6-6-6-6--|
|---------------4-4-4-4-4-4-4-4-4-|---------------4-4-4-4-4-4-4-4-4--|
|
| S S S S S S S S S S S S S S S S   S S S S S S S S S S S S S S S S
|---------------------------------|----------------------------------|
|---------------------------------|----------------------------------|
|-9-9---6-6-6---8-8-8---4-4-4---4-|-9-9---6-6-6---8-8-8---4-4-4---4--|
|-x-x---x-x-x---x-x-x---x-x-x---x-|-x-x---x-x-x---x-x-x---x-x-x---x--|
|-7-7---4-4-4---6-6-6---2-2-2---2-|-7-7---4-4-4---6-6-6---2-2-2---2--|
|---------------------------------|----------------------------------|


  C#5           G#5                 B               A
  S S S S S S S S S S S S S S S S   E E S S S E S E S S S S
|---------------------------------|--------------------------||
|---------------------------------|-------------------------o||
|---------------------------------|-8-8-8-8-8-8-8-8-6-6-6-6--||
|-6-6-6-6-6-6-6-------------------|-x-x-x-x-x-x-x-x-x-x-x-x--||
|-4-4-4-4-4-4-4-6-6-6-6-6-6-6-6-6-|-9-9-9-9-9-9-9-9-7-7-7-7-o||
|---------------4-4-4-4-4-4-4-4-4-|-7-7-7-7-7-7-7-7-5-5-5-5--||
|
| S S S S S S S S S S S S S S S S   E E S S S E S E E   E
|---------------------------------|--------------------------||
|---------------------------------|-------------------------o||
|-9-9---6-6-6---8-8-8---4-4-4---4-|-8-8-8-8-8-8-8-8-6---6----||
|-x-x---x-x-x---x-x-x---x-x-x---x-|-x-x-x-x-x-x-x-x-x---x----||
|-7-7---4-4-4---6-6-6---2-2-2---2-|-9-9-9-9-9-9-9-9-7---7---o||
|---------------------------------|--------------------------||


  C#5           G#5                 C#5           G#5
  S S S S S S S S S S S S S S S S   S S S S S S S S S S S S S S S S
|---------------------------------|----------------------------------|
|---------------------------------|----------------------------------|
|---------------------------------|----------------------------------|
|-6-6-6-6-6-6-6-------------------|-6-6-6-6-6-6-6--------------------|
|-4-4-4-4-4-4-4-6-6-6-6-6-6-6-6-6-|-4-4-4-4-4-4-4-6-6-6-6-6-6-6-6-6--|
|---------------4-4-4-4-4-4-4-4-4-|---------------4-4-4-4-4-4-4-4-4--|
|
| S S S S S S S S S S S S S S S S   S S S S S S S S S S S S S S S S
|---------------------------------|----------------------------------|
|---------------------------------|----------------------------------|
|-9-9---6-6-6---8-8-8---4-4-4---4-|-9-9---6-6-6---8-8-8---4-4-4---4--|
|-x-x---x-x-x---x-x-x---x-x-x---x-|-x-x---x-x-x---x-x-x---x-x-x---x--|
|-7-7---4-4-4---6-6-6---2-2-2---2-|-7-7---4-4-4---6-6-6---2-2-2---2--|
|---------------------------------|----------------------------------|


  C#5           G#5                 B       A
                                   4/4
                                            >
  S S S S S S S S S S S S S S S S   E. E  S H    +E
|---------------------------------|------------------|
|---------------------------------|------------------|
|---------------------------------|-8--8--8-6----(6)-|
|-6-6-6-6-6-6-6-------------------|-x--x--x-x----(x)-|
|-4-4-4-4-4-4-4-6-6-6-6-6-6-6-6-6-|-9--9--9-7----(7)-|
|---------------4-4-4-4-4-4-4-4-4-|-7--7--7-5----(5)-|
|
|                                           >
| S S S S S S S S S S S S S S S S   E. E.   H    +E
|---------------------------------|------------------|
|---------------------------------|------------------|
|-9-9---6-6-6---8-8-8---4-4-4---4-|-8--8----6----(6)-|
|-x-x---x-x-x---x-x-x---x-x-x---x-|-x--x----x----(x)-|
|-7-7---4-4-4---6-6-6---2-2-2---2-|-9--9----7----(7)-|
|---------------------------------|------------------|


  E5
  >
  W          +W
|----------|--------*|
|----------|--------*|
|----------|--------*|
|----------|--------*|
|-2--------|-(2)----*|
|-0--------|-(0)----*|
|
| Gtr II
| W          +W
|----------|--------*|
|----------|--------*|
|-9--------|-(9)----*|
|-9--------|-(9)----*|
|-7--------|-(7)----*|
|-0--------|-(0)----*|



Duration Legend
---------------
W - whole; H - half; Q - quarter; E - 8th; S - 16th; T - 32nd; X - 64th; a - acciaccatura
+ - note tied to previous; . - note dotted; .. - note double dotted
Uncapitalized letters represent notes that are staccato (1/2 duration)
Irregular groupings are notated above the duration line
Duration letters will always appear directly above the note/fret number it represents the
duration for.  Duration letters with no fret number below them represent rests.  Multi-
bar rests are notated in the form Wxn, where n is the number of bars to rest for.  Low
melody durations appear below the staff

Tablature Legend
----------------
 h   - hammer-on
 p   - pull-off
 b   - bend
 pb  - pre-bend
 r   - bend release (if no number after the r, then release immediately)
 /\  - slide into or out of (from/to "nowhere")
 s   - legato slide
 S   - shift slide
<n> - natural harmonic
[n]  - artificial harmonic
n(n) - tapped harmonic
 ~   - vibrato
 tr  - trill
 T   - tap
 TP  - trem. picking
 PM  - palm muting
\n/  - tremolo bar dip; n = amount to dip
 \n  - tremolo bar down
 n/  - tremolo bar up
/n\  - tremolo bar inverted dip
 =   - hold bend; also acts as connecting device for hammers/pulls
 <> - volume swell (louder/softer)
 x   - on rhythm slash represents muted slash
 o   - on rhythm slash represents single note slash

Misc Legend
-----------
 |  - bar
||  - double bar
||o - repeat start
o|| - repeat end
*|  - double bar (ending)
 :  - bar (freetime)
 $  - Segno
 &  - Coda
Tempo markers - <E/E./Q/Q./H/H.> = BPM(8/16=s8/s16), where s8 = swing 8ths, s16 = swing 16ths


*** GuitarCats.com ***