Tabs by Artist
0-9 A B C D E F G H I J K L M N O P Q R S T U V W X Y Z

SONG THAT MADE US WHAT WE ARE TODAY (DEMO)

As recorded by Red Hot Chili Peppers

(From the 2003 Album MOTHER'S MILK)

Tablature (Tab) for Guitar
Transcribed by shazz
Words by Anthony Kiedis

Music by John Frusciante, Chad Smith, Michael Balzary



Bb

x x 3 3 3 x
C

x x 5 5 5 x
Bb(type 2)

x x 3 3 3 6



Gtr I (E A D G B E) - 'distorted'

Gtr II (E A D G B E) - 'clean 1'

Gtr III (E A D G B E) - 'clean 2'


 Intro                       1
  Q=90
 4/4
  Gtr I
  H    H       H.       Q     E E Q  S S S S S S S S   E E E E H
|-----------|---------------|------------------------|--------------|
|-----------|---------------|------------------------|--------------|
|------0----|-[0]-----------|------------------------|--------------|
|-----------|---------------|------------------------|--------------|
|-----------|---------------|--------------------1---|--------------|
|-----------|----------/8\--|-1-3-3--1-3-3-1-3-3---3-|-1-3-3--------|


                                                Bb
  E E Q  S S S S S S S S   E E E E H      E E S E. S S S S S S S S
|------------------------|--------------|---------------------------|
|------------------------|--------------|-----x-3-------------------|
|------------------------|--------------|-----x-3-------------------|
|------------------------|--------------|-----x-3-------------------|
|--------------------1---|--------------|----------------------1----|
|-1-3-3--1-3-3-1-3-3---3-|-1-3-3--------|-1-3------1-3-3-1-3-3---3--|


          C
  E E E S E   +E. +E.   +S
|---------------------------|
|-------x-5b6r(5)-(5)b6-(5)-|
|-------x-5b6r(5)-(5)b6-(5)-|
|-------x-5b6r(5)-(5)b6-(5)-|
|---------------------------|
|-1-3-3---------------------|


  E E E E S S S S S S S S   E E E E S S S S S S S S
|-------------------------|--------------------------|
|-------------------------|--------------------------|
|-------------------------|--------------------------|
|-------------------------|--------------------------|
|---------3-1-1-3-1-1-3-1-|---------1-----1----------|
|-1-3-3-------------------|-1-3-3-----3-3---3-1-3-1--|


    E E E E S S S S S S S S
||--------------------------|
||o-------------------------|
||--------------------------|
||--------------------------|
||o---------------------1---|
||--1-3-3---1-3-3-1-3-3---3-|


  E E E E S S S S S S S S   E E E E S S S S S S S S
|-------------------------|-------------------------|
|-------------------------|-------------------------|
|-------------------------|-------------------------|
|-------------------------|-------------------------|
|---------------------1---|---------------------1---|
|-1-3-3---1-3-3-1-3-3---3-|-1-3-3---1-3-3-1-3-3---3-|


  1.                       2.
                Bb                       C
  E E E E S S S S S E.     E E E E S S S S S E.
|-----------------------||----------------------|
|---------------3---3--o||----------------------|
|---------------3---3---||---------------5---5--|
|---------------3---3---||---------------5---5--|
|----------------------o||----------------------|
|-1-3-3---1-3-3---------||-1-3-3---1-3-3--------|


 2
  S S S S S S S S S S S S S S S S
|----------------------------------|
|----------------------------------|
|----------------------------------|
|----------------------------------|
|----------------------------------|
|-3-1-3-1-3-1-3-1-3-1-3-1-3-1-3-1--|


  S S S S S S S S S S S S S S S S   S S S S S S S S S S S S S S S S
|---------------------------------|---------------------------------|
|---------------------------------|---------------------------------|
|---------------------------------|---------------------------------|
|---------------------------------|---------------------------------|
|---------------------------------|---------------------------------|
|-3-1-3-1-3-1-3-1-3-1-3-1-3-0-1-2-|-3-1-3-1-3-1-3-1-3-1-3-1-3-1-3-1-|


                                   3
  S S S S S S S S S S S S S S S S   E  H..
|---------------------------------|-----------|
|---------------------------------|-----------|
|---------------------------------|-----------|
|---------------------------------|-3-[3]-----|
|---------------------------------|-----------|
|-3-1-3-1-3-1-3-1-3-1-3-1-3-0-1-2-|-----------|


           |-3-| |-3-|
  +Q.   Q  S S S S S S E    E      +E    H.         +W
|-------6--8-6-----------|-----------------------|---------|
|--------------8-6-8-----|-11b13==(11)r-11-------|-(11)----|
|--------------------6---|-----------------------|---------|
|-(3)--------------------|-----------------------|---------|
|------------------------|-----------------------|---------|
|------------------------|-----------------------|---------|


 4
  E E E E S S S S S S S S   E E E E S S S S S S S S   E E E E S S S S S S S S
|-------------------------|-------------------------|--------------------------|
|-------------------------|-------------------------|--------------------------|
|-------------------------|-------------------------|--------------------------|
|-------------------------|-------------------------|--------------------------|
|---------------------1---|---------------------1---|---------------------1----|
|-1-3-3---1-3-3-1-3-3---3-|-1-3-3---1-3-3-1-3-3---3-|-1-3-3---1-3-3-1-3-3---3--|


  E E E E S S S S S S S S   E E E E S S S S S S S S   E E E E S S S S S S S S
|-------------------------|-------------------------|--------------------------|
|-------------------------|-------------------------|--------------------------|
|-------------------------|-------------------------|--------------------------|
|-------------------------|-------------------------|--------------------------|
|---------3-1-1-3-1-1-3-1-|---------------------1---|---------------------1----|
|-1-3-3-------------------|-1-3-3---1-3-3-1-3-3---3-|-1-3-3---1-3-3-1-3-3---3--|


  E E E E S S S S S S S S
|-------------------------|
|-------------------------|
|-------------------------|
|-------------------------|
|---------------------1---|
|-1-3-3---1-3-3-1-3-3---3-|


          E  D     E   D     E  D
  E E E E  S  S  S   S  S  S  S  S   E E E E S S S S S S S S
|---------12S10-10-/12S10-10S12-10-|--------------------------|
|---------12S10-10-/12S10-10S12-10-|--------------------------|
|----------------------------------|--------------------------|
|----------------------------------|--------------------------|
|----------------------------------|---------------------1----|
|-1-3-3----------------------------|-1-3-3---1-3-3-1-3-3---3--|


  E E E E S S S S S S S S   E E E E S S S S S S S S
|-------------------------|-------------------------|
|-------------------------|-------------------------|
|-------------------------|-------------------------|
|-------------------------|-------------------------|
|---------------------1---|---------------------1---|
|-1-3-3---1-3-3-1-3-3---3-|-1-3-3---1-3-3-1-3-3---3-|


          E  D     E   D      E  D
  E E E E  S  S  S   S  S   S  S  S
|------------------------------------|
|---------12S10-10-/12-10-/10-12S10--|
|----------9S=7--7--/9S=7--/7--9S=7--|
|------------------------------------|
|------------------------------------|
|-1-3-3------------------------------|


  E E E E S S S S S S S S   E E E E S S S S S S S S   E E E E S S S S S S S S
|-------------------------|-------------------------|--------------------------|
|-------------------------|-------------------------|--------------------------|
|-------------------------|-------------------------|--------------------------|
|-------------------------|-------------------------|--------------------------|
|---------------------1---|---------------------1---|---------------------1----|
|-1-3-3---1-3-3-1-3-3---3-|-1-3-3---1-3-3-1-3-3---3-|-1-3-3---1-3-3-1-3-3---3--|


  E E E E S S S S S S S S   E E E E S S S S S S S S   E E E E S S S S S S S S
|-------------------------|-------------------------|--------------------------|
|-------------------------|-------------------------|--------------------------|
|-------------------------|-------------------------|--------------------------|
|-------------------------|-------------------------|--------------------------|
|---------3-1-1-3-1-1-3-1-|---------------------1---|---------------------1----|
|-1-3-3-------------------|-1-3-3---1-3-3-1-3-3---3-|-1-3-3---1-3-3-1-3-3---3--|


  E E E E S S S S S S S S   E E E E S S S S S S S S
|-------------------------|-------------------------|
|-------------------------|-------------------------|
|-------------------------|-------------------------|
|-------------------------|-------------------------|
|---------------------1---|---------3-1-1-3-1-1-3-1-|
|-1-3-3---1-3-3-1-3-3---3-|-1-3-3-------------------|


 5
  S S S S S S S S S S S S S S S S
|-----------------------------------|
|-----------------------------------|
|-----------------------------------|
|-----------------------------------|
|-----------------------------------|
|-3-1-3-1-3-1-3-1-3-1-3-1-3-1-3-1---|


                            C
  S S S S S S S S S S S S S E.   S S S S S S S S S S S S S S S S
|------------------------------|---------------------------------|
|-------------------------x-5--|---------------------------------|
|-------------------------x-5--|---------------------------------|
|-------------------------x-5--|---------------------------------|
|------------------------------|---------------------------------|
|-3-1-3-1-3-1-3-1-3-1-3-1------|-3-1-3-1-3-1-3-1-3-1-3-1-3-1-3-1-|


                                6
                            C
  S S S S S S S S S S S S S E.   E E H.        +W
|------------------------------|-------------|--------|
|-------------------------x-5--|-----6-------|-(6)----|
|-------------------------x-5--|-------------|--------|
|-------------------------x-5--|-------------|--------|
|------------------------------|-------------|--------|
|-3-1-3-1-3-1-3-1-3-1-3-1------|-1-3---------|--------|


                                7
      Bb
  E E H.        +H.        Q     E E E E S S S S S S S S
|-------------|----------------|-------------------------|
|-----3-------|-(3)------------|-------------------------|
|-----3-------|-(3)------------|-------------------------|
|-----3-------|-(3)------------|-------------------------|
|-------------|----------------|---------------------1---|
|-1-3---------|----------/10\--|-1-3-3---1-3-3-1-3-3---3-|


  E E E E S S S S S S S S   E E E E S S S S S S S S   E E E E S S S S S S S S
|-------------------------|-------------------------|--------------------------|
|-------------------------|-------------------------|--------------------------|
|-------------------------|-------------------------|--------------------------|
|-------------------------|-------------------------|--------------------------|
|---------------------1---|---------------------1---|---------3-1-1-3-1-1-3-1--|
|-1-3-3---1-3-3-1-3-3---3-|-1-3-3---1-3-3-1-3-3---3-|-1-3-3--------------------|


 8
  G                    F    E     Bb                F    G
    W           +H       Q   Q    W          +H      Q   Q
|------------|------------------|----------|-----------------|
|------------|------------------|----------|-----------------|
|-/12--------|-(12)-------------|----------|-----------------|
|------------|---------/15--14S=|=8--------|-(8)----(3)--5/--|
|-/10--------|-(10)-------------|----------|-----------------|
|------------|---------/13--12S=|=6--------|-(6)-----1---3/--|


  G     Gb F
   Q.    E  H       +W            +W            +H.        Q
|-15----14-13----|-(13)--------|-(13)--------|-(13)------------|
|-15----14-13----|-(13)--------|-(13)--------|-(13)------------|
|----------------|-------------|-------------|-----------------|
|----------------|-------------|-------------|-----------------|
|----------------|-------------|-------------|-----------/10\--|
|----------------|-------------|-------------|-----------------|


  G         Bb  E           F   G        C        Bb              F   G
    Q.    E  Q  Q    +H      Q   Q     a  Q.    E  H       +H      Q   Q
|------------------|----------------|-------------------|-----------------|
|------------------|----------------|-------------------|-----------------|
|-/12----12S15S=9--|-(9)----10--12--|-12s17----17s15----|-(15)----10--12--|
|------------------|----------------|-------------------|-----------------|
|-/10----10S13S=7--|-(7)-----8--10--|-10s15----15s13----|-(13)-----8--10--|
|------------------|----------------|-------------------|-----------------|


  D  C  Bb  C               E  D    Bb
  E. E. E a H      +H     S E. Q    W          +W
|----------------|----------------|----------|--------|
|----------------|----------------|----------|--------|
|-7--5--3-3s5----|-(5)----5s9--7--|-3--------|-(3)----|
|----------------|----------------|----------|--------|
|-5--3--1-1s3----|-(3)----3s7--5--|-1--------|-(1)----|
|----------------|----------------|----------|--------|


  G         Bb  F   G       Bb  F   G   Db   Bb
    Q.    E  E.  E.  E    a  E.  E.  Q    E.  E.
|----------------------|-------------------------|
|----------------------|-------------------------|
|-/12----12s15--10--12-|-12s15--10--12--/18--15--|
|----------------------|-------------------------|
|-/10----10s13---8--10-|-10s13---8--10--/16--13--|
|----------------------|-------------------------|


  G   Bb  F   G   D     Db      G A
   E.  E.  E.  E.  Q    H.      E E
|---------------------|-------------|
|---------------------|-------------|
|-12--15--10--12--\7--|-6-----------|
|---------------------|---------5-7-|
|-10--13---8--10--\5--|-4-----------|
|---------------------|---------3-5-|


  Bb    C  G             F  G    C   Bb Gb
  Q..    S H      +H     Q  Q     E. E. E +H       +W
|---------------|--------------|-----------------|--------|
|---------------|--------------|-----------------|--------|
|---------------|--------------|-----------------|--------|
|-8s====10-5----|-(5)----3--5--|-10--8--4-(4)----|-(4)----|
|---------------|--------------|-----------------|--------|
|-6s=====8-3----|-(3)----1--3--|--8--6--2-(2)----|-(2)----|


 9
        Bb
  E E E  E  S S S S S S S S
|---------------------------|
|-------(3)-----------------|
|-------(3)-----------------|
|-------(3)-----------------|
|-----------------------1---|
|-1-3-3-----1-3-3-1-3-3---3-|


        C                            Bb
  E E E  E   S S S S S S S S   E E E  E  S S S S S S S S
|----------------------------|----------------------------|
|-------(5)\-----------------|-------(3)------------------|
|-------(5)\-----------------|-------(3)------------------|
|-------(5)\-----------------|-------(3)------------------|
|------------------------1---|-----------------------1----|
|-1-3-3------1-3-3-1-3-3---3-|-1-3-3-----1-3-3-1-3-3---3--|


                                    Bb
  E E E  E  S S S S S S S S   E E E  E  S S S S S S S S
|---------------------------|---------------------------|
|---------------------------|-------(3)-----------------|
|---------------------------|-------(3)-----------------|
|---------------------------|-------(3)-----------------|
|-----------3-1-1-3-1-1-3-1-|-----------------------1---|
|-1-3-3-/8\-----------------|-1-3-3-----1-3-3-1-3-3---3-|


        C
  E E E  E  S S S S S S S S
|----------------------------|
|-------(5)------------------|
|-------(5)------------------|
|-------(5)------------------|
|-----------------------1----|
|-1-3-3-----1-3-3-1-3-3---3--|


                                  C   E  D     E   D      E  D
  E E E E S S S S S S S S   E E E  E   S  S  S   S  S   S  S  S
|-------------------------|-----------12S10-10-/12S10-/10-12S10-|
|-------x-----------------|-------(5)-12S10-10-/12S10-/10-12S10-|
|-------x-----------------|-------(5)---------------------------|
|-------x-----------------|-------(5)---------------------------|
|---------------------1---|-------------------------------------|
|-1-3-3---1-3-3-1-3-3---3-|-1-3-3-------------------------------|


        Bb
  E E E  E  S S S S S S S S
|----------------------------|
|-------(3)------------------|
|-------(3)------------------|
|-------(3)------------------|
|-----------------------1----|
|-1-3-3-----1-3-3-1-3-3---3--|


        Bb                          Bb
  E E E  E  S S S S S S S S   E E E  E  S S S S S S S S
|---------------------------|---------------------------|
|-------(3)-----------------|-------(3)-----------------|
|-------(3)-----------------|-------(3)-----------------|
|-------(3)-----------------|-------(3)-----------------|
|-----------------------1---|-----------------------1---|
|-1-3-3-----1-3-3-1-3-3---3-|-1-3-3-----1-3-3-1-3-3---3-|


        Bb
  E E E  E   S      +S    S   +S    S    E.
|------------------------12--------12---10---|
|-------(3)--------------12--------12---10---|
|-------(3)-10b12==(10)-(10)-(10)-(10)-(10)r-|
|-------(3)----------------------------------|
|--------------------------------------------|
|-1-3-3--------------------------------------|


 10
                                                          Bb
  S S S S S S S S S S S S S S S S   S S S S S S S S S S S S S E.
|---------------------------------|------------------------------|
|---------------------------------|-----------------------3------|
|---------------------------------|-----------------------3---3--|
|---------------------------------|-----------------------3---3--|
|---------------------------------|------------------------------|
|-3-1-3-1-3-1-3-1-3-1-3-1-3-1-3-1-|-3-1-3-1-3-1-3-1-3-1-3--------|


                                                        Bb  C
  S S S S S S S S S S S S S S S S   S S S S S S S S S S S E E.
|---------------------------------|----------------------------||
|---------------------------------|---------------------3------||
|---------------------------------|---------------------3-3s5--||
|---------------------------------|---------------------3-3s5--||
|---------------------------------|----------------------------||
|-3-1-3-1-3-1-3-1-3-1-3-1-3-1-3-1-|-3-1-3-1-3-1-3-1-3-1--------||


 11
  Wx4
|--------|
|--------|
|--------|
|--------|
|--------|
|--------|


                     |-3-|
   W          +H     Q Q Q   W          +W
|-----------|--------------|----------|--------|
|-----------|--------------|----------|--------|
|-----------|----------5-7-|----------|--------|
|-/5--------|-(5)----8-----|-5--------|-(5)----|
|-----------|--------------|----------|--------|
|-----------|--------------|----------|--------|


  ~~~~~~~~~~~~~~~~~~~~~~~~~~~~~~~~~~~~~~~~~~~~~~~~~~~~~~~~~~~~~~~~~~~~~~~~~
  E E Q  S S S S S S S S   E E Q  S S S S S S S S   E E Q  S S S S S S S S
|------------------------|------------------------|-------------------------|
|------------------------|------------------------|-------------------------|
|--------------------3---|--------------------3---|--------------------3----|
|-3-5-5--3-5-5-3-5-5---5-|-3-5-5--3-5-5-3-5-5---5-|-3-5-5--3-5-5-3-5-5---5--|
|------------------------|------------------------|-------------------------|
|------------------------|------------------------|-------------------------|


  ~~~~~~~~~~~~~~~~~~~~~~~~~~~~~~~~~~~~~~~~~~~~~~~~~~~~~~~~~~~~~~~~~~~~~~~~~
  E E Q  S S S S S S S S   E E Q  S S S S S S S S   E E Q  S S S S S S S S
|------------------------|------------------------|-------------------------|
|------------------------|------------------------|-------------------------|
|--------5-3-3-5-3-3-5-3-|--------------------3---|--------------------3----|
|-3-5-5------------------|-3-5-5--3-5-5-3-5-5---5-|-3-5-5--3-5-5-3-5-5---5--|
|------------------------|------------------------|-------------------------|
|------------------------|------------------------|-------------------------|


  ~~~~~~~~~~~~~~~~~~~~~~~~~~~~~~~~~~~~~~~~~~~~~~~~~~~~~~~~~~~~~~~~~~~~~~~~~~~
  E E Q  S S S S S S S S   E E Q  S S S S S S S S     E E Q  S S S S S S S S
|------------------------|------------------------||--------------------------|
|------------------------|------------------------||o-------------------------|
|--------------------3---|----------------5-3-5-3-||---------------------3----|
|-3-5-5--3-5-5-3-5-5---5-|-3-5-5--3-5-5-3---------||--3-5-5--3-5-5-3-5-5---5--|
|------------------------|------------------------||o-------------------------|
|------------------------|------------------------||--------------------------|


  ~~~~~~~~~~~~~~~~~~~~~~~~~~~~~~~~~~~~~~~~~~~~~~~~~~~~~~~~~~~~~~~~~~~~~~~~~
  E E Q  S S S S S S S S   E E Q  S S S S S S S S   E E Q  S S S S S S S S   5x
|------------------------|------------------------|--------------------------||
|------------------------|------------------------|-------------------------o||
|--------------------3---|--------------------3---|--------5-3-3-5-3-3-5-3---||
|-3-5-5--3-5-5-3-5-5---5-|-3-5-5--3-5-5-3-5-5---5-|-3-5-5--------------------||
|------------------------|------------------------|-------------------------o||
|------------------------|------------------------|--------------------------||


 12
  E E Q.   Q.     W           H         +E   Q.     +H.       E.  S
|---------------|----------|----------------------|-----------------|
|---------------|----------|-11b13=====(11)r-8----|-(8)-------------|
|---------------|----------|----------------------|----------10--10-|
|-3-5-5\--------|----------|----------------------|-----------------|
|---------------|----------|----------------------|-----------------|
|---------------|----------|----------------------|-----------------|


                    ~~~~~~~~~~~~~~~~~
   W               +W            +W             +Q.      +E     +H
|---------------|-------------|-------------|---------------------------|
|-11b13=========|=(11)--------|-(11)--------|-([11])---([11])-([11])----|
|---------------|-------------|-------------|---------------------------|
|---------------|-------------|-------------|---------------------------|
|---------------|-------------|-------------|---------------------------|
|---------------|-------------|-------------|---------------------------|


   13
    E E E S S S S S S S S S S
||----------------------------|
||o---------------------------|
||----------------------------|
||----------------------------|
||o-------1---------------1---|
||--1-3-3---3-1-3-3-1-3-3---3-|


  E E E S S S S S S S S S S   E E E S S S S S S S S S S
|---------------------------|-----------------------------|
|---------------------------|-----------------------------|
|---------------------------|-----------------------------|
|---------------------------|-----------------------------|
|-------1---------------1---|-------1---------------1-----|
|-1-3-3---3-1-3-3-1-3-3---3-|-1-3-3---3-1-3-3-1-3-3---3---|


  1.,2.,3.                      4.
                                        E  D     E   D     E  D
  E E E S S S S S S S S S S  4x E E E E  S  S  S   S  S  S  S  S
|----------------------------||---------12S10-10-/12S10-10S12-10-|
|---------------------------o||---------12S10-10-/12S10-10S12-10-|
|----------------------------||----------------------------------|
|----------------------------||----------------------------------|
|-------1---3-1-1-3-1-1-3-1-o||----------------------------------|
|-1-3-3---3------------------||-1-3-3----------------------------|


   14
    Gtr II
    e e   e E    e   S S S S  E      e e   e E    e   S S S S  E     8x
||---------------------------------|---------------------------------||
||o-6-8-----5s==18-----------------|-6-8-----5s==18-----------------o||
||--------7------------5-----------|-------7------------5------------||
||-----------------------3-5-------|----------------------3-5--------||
||o--------------------------------|--------------------------------o||
||---------------------------------|---------------------------------||
|
|   Gtr III
|   E S S E S S  S S S S E    S  S   E S S E S S  S S S S E    S  S  8x
||----6-----6-6--6-----------13-13-|---6-----6-6--6-----------13-13--||
||o---------6-6--6---8-8-----------|---------6-6--6---8-8-----------o||
||---------------------------------|---------------------------------||
||------5--------------------------|-----5---------------------------||
||o--------------------------------|--------------------------------o||
||---------------------------------|---------------------------------||


 15
                                  Bb
  Gtr I
  E E E E S S S S S S S S   E E E E S S S S S S S S
|-------------------------|-------------------------|
|-------------------------|-------3-----------------|
|-------------------------|-------3-----------------|
|-------------------------|-------3-----------------|
|---------------------1---|---------------------1---|
|-1-3-3---1-3-3-1-3-3---3-|-1-3-3---1-3-3-1-3-3---3-|


  E E E  E  S S S S S S S S
|----------------------------|
|----------------------------|
|----------------------------|
|----------------------------|
|-------/8\-------------1----|
|-1-3-3-----1-3-3-1-3-3---3--|


            C  Bb    C   Bb    C   Bb
  E E E  E   S  S  S   S  S  S   S  S
|-------------------------------------|
|-----------13S11-11-/13-11-11-/13S11-|
|-----------10S=8--8-/10S=8--8-/10S=8-|
|-------------------------------------|
|-------/8\---------------------------|
|-1-3-3-------------------------------|


  E E E E S S S S S S S S   E E S E   +S  S S S S S S S S
|-------------------------|-------------------------------|
|-------------------------|-------------------------------|
|-------------------------|-------------------------------|
|-------------------------|-------------------------------|
|-------1-------------1---|-------3b4-(3)-------------1---|
|-1-3-3---1-3-3-1-3-3---3-|-1-3-3---------1-3-3-1-3-3---3-|


                                    C Bb  C  Bb  C  Bb
  E E E E S S S S S S S S   E E E E S S S  S S S  S S
|-------------------------|---------------------------|
|-------------------------|---------------------------|
|-------------------------|---------5S3-3-/5S3-3-/5S3-|
|-------------------------|---------5S3-3-/5S3-3-/5S3-|
|---------------------1---|---------------------------|
|-1-3-3---1-3-3-1-3-3---3-|-1-3-3---------------------|


  E E E E S S S S S S S S
|--------------------------|
|--------------------------|
|--------------------------|
|--------------------------|
|---------------------1----|
|-1-3-3---1-3-3-1-3-3---3--|


  E E E E S S S S S S S S
|-------------------------|
|-------------------------|
|-------------------------|
|-------------------------|
|---------------------1---|
|-1-3-3---1-3-3-1-3-3---3-|


  E E S E   +S  S S S S S S S S   E E E E S S S S S S S S
|-------------------------------|-------------------------|
|-------------------------------|-------------------------|
|-------------------------------|-------------------------|
|-------------------------------|-------------------------|
|-------3b4-(3)-------------1---|---------3-1-1-3-1-1-3-1-|
|-1-3-3---------1-3-3-1-3-3---3-|-1-3-3-------------------|


  E E S E   +S  S S S S S S S S
|-------------------------------|
|-------------------------------|
|-------------------------------|
|-------------------------------|
|-------3b4-(3)-------------1---|
|-1-3-3---------1-3-3-1-3-3---3-|


  E E E S S S S S S S S S S   E E E E S S S S S S S S
|---------------------------|--------------------------|
|---------------------------|--------------------------|
|---------------------------|--------------------------|
|---------------------------|--------------------------|
|-------1---------------1---|---------------------1----|
|-1-3-3---3-1-3-3-1-3-3---3-|-1-3-3---1-3-3-1-3-3---3--|


                           16
          C Bb  C Bb  C Bb
  E E E E S S S S S S S S   Wx2
|-------------------------|--------|
|-------------------------|--------|
|-------------------------|--------|
|---------5-3-3-5-3-3-5-3-|--------|
|---------3-1-1-3-1-1-3-1-|--------|
|-1-3-3-------------------|--------|


   W            W             W             +W
|-13--------|-[13]--------|-[13]--------|-([13])----|
|-----------|-------------|-------------|-----------|
|-----------|-------------|-------------|-----------|
|-----------|-------------|-------------|-----------|
|-----------|-------------|-------------|-----------|
|-----------|-------------|-------------|-----------|


                               17
                                    Bb(typBb(typBb(typBb(typBb(type 2)
    W             +W            S S S S S S S S S S S S S S E
|-[13]--------|-([13])--------|-----6-----6-----6-----6-----6-|
|-------------|---------------|-----3-----3-----3-----3-----3-|
|-------------|---------------|-----3-----3-----3-----3-----3-|
|-------------|---------------|-----3-----3-----3-----3-----3-|
|-------------|---------------|-------------------------------|
|-------------|---------------|-3-3---3-3---3-3---3-3---3-3---|


  S S S S S S S S S S S S S S S S   S S S S S S S S S S S S S S E
|-----6-----6-----6-----6-----6-6-|-----6-----6-----6-----6-----6--|
|-----3-----3-----3-----3-----3-3-|-----3-----3-----3-----3-----3--|
|-----3-----3-----3-----3-----3-3-|-----3-----3-----3-----3-----3--|
|-----3-----3-----3-----3-----3-3-|-----3-----3-----3-----3-----3--|
|---------------------------------|--------------------------------|
|-3-3---3-3---3-3---3-3---3-3-----|-3-3---3-3---3-3---3-3---3-3----|


  S S S S S S S S S S S S S S S   +S    S S S S S S S S S S S S S S S   +S
|-----6-----6-----6-----6-----6b8-(6)-|-----6-----6-----6-----6-----6b8-(6)-|
|-----3-----3-----3-----3-----3-------|-----3-----3-----3-----3-----3-------|
|-----3-----3-----3-----3-----3-------|-----3-----3-----3-----3-----3-------|
|-----3-----3-----3-----3-----3-------|-----3-----3-----3-----3-----3-------|
|-------------------------------------|-------------------------------------|
|-3-3---3-3---3-3---3-3---3-3---------|-3-3---3-3---3-3---3-3---3-3---------|


  S S S S S S S S S S S S S S E   S S S S S S S S S S S S S S S   +S
|-----6-----6-----6-----6-----6-|-----6-----6-----6-----6-----6b8-(6)--|
|-----3-----3-----3-----3-----3-|-----3-----3-----3-----3-----3--------|
|-----3-----3-----3-----3-----3-|-----3-----3-----3-----3-----3--------|
|-----3-----3-----3-----3-----3-|-----3-----3-----3-----3-----3--------|
|-------------------------------|--------------------------------------|
|-3-3---3-3---3-3---3-3---3-3---|-3-3---3-3---3-3---3-3---3-3----------|


    S S S S S S S S S S S S S S S S  3x S S S S S S S S S S S S S S   E
||------6-----6-----6-----6-----6-6--||-----6-----6-----6-----6----------|
||o-----3-----3-----3-----3-----3-3-o||-----3-----3-----3-----3----------|
||------3-----3-----3-----3-----3-3--||-----3-----3-----3-----3----------|
||------3-----3-----3-----3-----3-3--||-----3-----3-----3-----3----------|
||o---------------------------------o||----------------------------------|
||--3-3---3-3---3-3---3-3---3-3------||-3-3---3-3---3-3---3-3---3-3-/18\-|


 18
                                  Bb                        C
  E E E E S S S S S S S S   E E E E S S S S S S S S   E E E E S S S S S S S S
|-------------------------|-------------------------|--------------------------|
|-------------------------|-------3-----------------|-------5------------------|
|-------------------------|-------3-----------------|-------5------------------|
|-------------------------|-------3-----------------|-------5------------------|
|---------------------1---|---------------------1---|---------------------1----|
|-1-3-3---1-3-3-1-3-3---3-|-1-3-3---1-3-3-1-3-3---3-|-1-3-3---1-3-3-1-3-3---3--|


                                  Bb                        C
  E E E E S S S S S S S S   E E E E S S S S S S S S   E E E E S S S S S S S S
|-------------------------|-------------------------|--------------------------|
|-------------------------|-------3-----------------|-------5------------------|
|-------------------------|-------3-----------------|-------5------------------|
|-------------------------|-------3-----------------|-------5------------------|
|---------3-1-1-3-1-1-3-1-|---------------------1---|---------------------1----|
|-1-3-3-------------------|-1-3-3---1-3-3-1-3-3---3-|-1-3-3---1-3-3-1-3-3---3--|


  E E E S S S S S S S S S S
|---------------------------|
|---------------------------|
|---------------------------|
|---------------------------|
|-------1---------------1---|
|-1-3-3---3-1-3-3-1-3-3---3-|


  E E E   E  S S S S S S S S   E E E E S S S S S S S S
|----------------------------|-------------------------|
|----------------------------|-------------------------|
|----------------------------|-------------------------|
|----------------------------|-------------------------|
|------------3-1-1-3-1-1-3-1-|---------------------1---|
|-1-3-3-/10\-----------------|-1-3-3---1-3-3-1-3-3---3-|


  E E S E   +S  S S S S S S S S
|-------------------------------|
|-------------------------------|
|-------------------------------|
|-------------------------------|
|-------3b4-(3)-------------1---|
|-1-3-3---------1-3-3-1-3-3---3-|


  E E S E   +S  S S S S S S S S   E E E   E  S S S S S S S S
|-------------------------------|-----------------------------|
|-------------------------------|-----------------------------|
|-------------------------------|-----------------------------|
|-------------------------------|-----------------------------|
|-------5b6-(5)-------------1---|------------3-1-1-3-1-1-3-1--|
|-1-3-3---------1-3-3-1-3-3---3-|-1-3-3-/10\------------------|


  E E E E S S S S S S S S   E E E E S S S S S S S S   E E E E S S S S S S S S
|-------------------------|-------------------------|--------------------------|
|-------------------------|-------------------------|--------------------------|
|-------------------------|-------------------------|--------------------------|
|-------------------------|-------------------------|--------------------------|
|---------------------1---|---------------------1---|---------------------1----|
|-1-3-3---1-3-3-1-3-3---3-|-1-3-3---1-3-3-1-3-3---3-|-1-3-3---1-3-3-1-3-3---3--|


                           19
  E E E E S S S S S S S S   Wx20
|-------------------------|---------|
|-------------------------|---------|
|---------5-3-3-5-3-3-5-3-|---------|
|-------------------------|---------|
|-------------------------|---------|
|-1-3-3-------------------|---------|


  Wx12            S S S S S S S S S S S S S S S S  5x
|-------------||-----------------------------------||
|-------------||o---------------------------------o||
|-------------||----------2p0-------------2p0-2p0--||
|-------------||----2-----------2-----2------------||
|-------------||o---------------------------------o||
|-------------||--0---0-0-----0---0-0---0----------||


                H.=H
  S S S S S S S S S S S S S S S S   W     +H
|---------------------------------|----|----------*|
|---------------------------------|----|----------*|
|---------2p0-------------2p0-2p0-|----|----------*|
|---2-----------2-----2-----------|----|----------*|
|---------------------------------|----|----------*|
|-0---0-0-----0---0-0---0---------|-0--|-([0])----*|



Duration Legend
---------------
W - whole; H - half; Q - quarter; E - 8th; S - 16th; T - 32nd; X - 64th; a - acciaccatura
+ - note tied to previous; . - note dotted; .. - note double dotted
Uncapitalized letters represent notes that are staccato (1/2 duration)
Irregular groupings are notated above the duration line
Duration letters will always appear directly above the note/fret number it represents the
duration for.  Duration letters with no fret number below them represent rests.  Multi-
bar rests are notated in the form Wxn, where n is the number of bars to rest for.  Low
melody durations appear below the staff

Tablature Legend
----------------
 h   - hammer-on
 p   - pull-off
 b   - bend
 pb  - pre-bend
 r   - bend release (if no number after the r, then release immediately)
 /\  - slide into or out of (from/to "nowhere")
 s   - legato slide
 S   - shift slide
<n> - natural harmonic
[n]  - artificial harmonic
n(n) - tapped harmonic
 ~   - vibrato
 tr  - trill
 T   - tap
 TP  - trem. picking
 PM  - palm muting
\n/  - tremolo bar dip; n = amount to dip
 \n  - tremolo bar down
 n/  - tremolo bar up
/n\  - tremolo bar inverted dip
 =   - hold bend; also acts as connecting device for hammers/pulls
 <> - volume swell (louder/softer)
 x   - on rhythm slash represents muted slash
 o   - on rhythm slash represents single note slash

Misc Legend
-----------
 |  - bar
||  - double bar
||o - repeat start
o|| - repeat end
*|  - double bar (ending)
 :  - bar (freetime)
 $  - Segno
 &  - Coda
Tempo markers - <E/E./Q/Q./H/H.> = BPM(8/16=s8/s16), where s8 = swing 8ths, s16 = swing 16ths


*** GuitarCats.com ***