Tabs by Artist
0-9 A B C D E F G H I J K L M N O P Q R S T U V W X Y Z

DEEP RIVER BLUES

As recorded by T Doc Watson

Tablature (Tab) for Guitar


Gtr I (E A D G B E) - 'Guitar'


    Q=144(8=s8)
   4/4
    Gtr I
    E E E E +E  E Q    E E E E +E  E Q
||--7-----7-(7)------|-6-----6-(6)------|
||o-----5---------5--|-----5---------5--|
||----7---------7----|---6---------6----|
||------6---------6--|-----5---------5--|
||o------------------|------------------|
||--0--------0-------|-0--------0-------|
    Q   Q    Q    Q    Q   Q    Q    Q


  E E E  E E E E E   E E +E  E +E  E E E
|-7-0-3s=4-0-----0-|-3-2-(2)-0-(0)-----0-|
|------------0h2---|---------------0-2---|
|-----3\-4---------|---------------------|
|--------------2---|------2----------2---|
|------------------|-0-------------------|
|-0--------0-------|------------0--------|
  Q   E  E Q   Q     Q    Q     Q    Q


  +Q   Q  E E E E    Q   E E     E E Q
|-(0)-----------0-|-(0)----3b3.5---0----|
|---------0h2-----|---------------------|
|-----------------|---------------------|
|------2------2---|------2-----------2--|
|---------2-------|---------------------|
|--0--------------|--0-----------0------|
   Q   Q  Q   Q


  E E +E  E +E  E +E  E   E E Q      E E E E
|-2---------------------|-----3b3.5--0-------|
|---0-(0)-------0-(0)---|--------------3---0-|
|---------2-(2)-------2-|--------------------|
|------1-----------1----|---1------------1---|
|-2---------------------|-2------------------|
|------------2----------|------------2-------|
  Q    Q     Q     Q      H          Q   Q


  +E  E E E E E +Q     E E E E +Q   Q    E E E E E E E E   E E +E  E +E  E Q
|-------7-----7-(7)--|-6-----6-(6)-----|-7-3s4-0-------0-|-3-2-(2)-0-(0)------|
|-(0)-------5--------|-----5-----------|-----------0h2---|---------------0h2--|
|--------------------|---6-------------|-----------------|--------------------|
|-----6----------6---|-----5--------5--|-----0-------2---|------2----------2--|
|--------------------|-----------------|-----------------|-0------------------|
|--0------0----------|-0--------0------|-0-------0-------|------------0-------|
   Q    E E Q    Q     Q   Q    Q   Q    Q   Q   E E Q     Q    Q     Q    Q


                                      1.
                              To Coda
  Q  Q  E E Q    E E E E +E  E +E  E   +E  E E E E E E E   E E Q  Q  Q
|-0------------|-0---0-3-(3)-2-(2)-0-|-(0)-----0---------|---0-----------||
|-------0-2----|---------------------|---------------0---|--------------o||
|--------------|-----2---------------|-----0h1---0h1---0h|=1-------------||
|----2------2--|-1-1------------1----|-------------------|--------2------||
|-------2------|---------------------|---------------2---|--------------o||
|-0------------|----------2----------|--0--------0-------|-0---0---------||
  Q  Q  Q   Q    E E Q    Q     Q       Q    Q   Q   Q     Q   Q  H


  2.
                          D.C. al Coda
                                      &
      |-3-|     |-3-|
  E E E E E E E E E E   Q  Q  E E E E   E E E E +Q    E E   +Q    E E +Q   Q
|---------------------|----0--------0-|-------0-(0)-----0-|-(0)-----0-(0)-----*|
|---------------------|---------2p0---|-------------------|-------------------*|
|---------------------|---------------|-----3---------2---|-------1-----------*|
|---2-1p0-------------|----2------2---|-------------------|----------------2--*|
|---------2-0-2-1p0---|---------------|---4---------3-----|-----2-------------*|
|-0-----------------3-|-0-----0-------|-0--------0--------|--0---------0------*|
                        Q  Q  E E Q     E E Q    E  E Q      E  E Q    Q   Q



Duration Legend
---------------
W - whole; H - half; Q - quarter; E - 8th; S - 16th; T - 32nd; X - 64th; a - acciaccatura
+ - note tied to previous; . - note dotted; .. - note double dotted
Uncapitalized letters represent notes that are staccato (1/2 duration)
Irregular groupings are notated above the duration line
Duration letters will always appear directly above the note/fret number it represents the
duration for.  Duration letters with no fret number below them represent rests.  Multi-
bar rests are notated in the form Wxn, where n is the number of bars to rest for.  Low
melody durations appear below the staff

Tablature Legend
----------------
 h   - hammer-on
 p   - pull-off
 b   - bend
 pb  - pre-bend
 r   - bend release (if no number after the r, then release immediately)
 /\  - slide into or out of (from/to "nowhere")
 s   - legato slide
 S   - shift slide
<n> - natural harmonic
[n]  - artificial harmonic
n(n) - tapped harmonic
 ~   - vibrato
 tr  - trill
 T   - tap
 TP  - trem. picking
 PM  - palm muting
\n/  - tremolo bar dip; n = amount to dip
 \n  - tremolo bar down
 n/  - tremolo bar up
/n\  - tremolo bar inverted dip
 =   - hold bend; also acts as connecting device for hammers/pulls
 <> - volume swell (l